  0
SECTION
  2
HEADER
  9
$ACADVER
  1
AC1015
  9
$ACADMAINTVER
 70
     6
  9
$DWGCODEPAGE
  3
ANSI_1252
  9
$INSBASE
 10
0.0
 20
0.0
 30
0.0
  9
$EXTMIN
 10
-249.9216128117
 20
-26.9715503129
 30
0.0
  9
$EXTMAX
 10
249.9615659287
 20
0.0
 30
0.0
  9
$LIMMIN
 10
0.0
 20
0.0
  9
$LIMMAX
 10
420.0
 20
297.0
  9
$ORTHOMODE
 70
     0
  9
$REGENMODE
 70
     1
  9
$FILLMODE
 70
     1
  9
$QTEXTMODE
 70
     0
  9
$MIRRTEXT
 70
     1
  9
$LTSCALE
 40
1.0
  9
$ATTMODE
 70
     1
  9
$TEXTSIZE
 40
3.5
  9
$TRACEWID
 40
1.0
  9
$TEXTSTYLE
  7
Standard
  9
$CLAYER
  8
0
  9
$CELTYPE
  6
ByLayer
  9
$CECOLOR
 62
   256
  9
$CELTSCALE
 40
1.0
  9
$DISPSILH
 70
     0
  9
$DIMSCALE
 40
1.0
  9
$DIMASZ
 40
3.302
  9
$DIMEXO
 40
1.0
  9
$DIMDLI
 40
3.75
  9
$DIMRND
 40
0.0
  9
$DIMDLE
 40
0.0
  9
$DIMEXE
 40
1.0
  9
$DIMTP
 40
0.0
  9
$DIMTM
 40
0.0
  9
$DIMTXT
 40
3.5
  9
$DIMCEN
 40
2.5
  9
$DIMTSZ
 40
0.0
  9
$DIMTOL
 70
     0
  9
$DIMLIM
 70
     0
  9
$DIMTIH
 70
     1
  9
$DIMTOH
 70
     1
  9
$DIMSE1
 70
     0
  9
$DIMSE2
 70
     0
  9
$DIMTAD
 70
     1
  9
$DIMZIN
 70
     1
  9
$DIMBLK
  1

  9
$DIMASO
 70
     1
  9
$DIMSHO
 70
     1
  9
$DIMPOST
  1

  9
$DIMAPOST
  1

  9
$DIMALT
 70
     0
  9
$DIMALTD
 70
     3
  9
$DIMALTF
 40
0.0393700787
  9
$DIMLFAC
 40
1.0
  9
$DIMTOFL
 70
     1
  9
$DIMTVP
 40
0.0
  9
$DIMTIX
 70
     0
  9
$DIMSOXD
 70
     0
  9
$DIMSAH
 70
     0
  9
$DIMBLK1
  1

  9
$DIMBLK2
  1

  9
$DIMSTYLE
  2
ISO-25
  9
$DIMCLRD
 70
     0
  9
$DIMCLRE
 70
     0
  9
$DIMCLRT
 70
     0
  9
$DIMTFAC
 40
1.0
  9
$DIMGAP
 40
1.524
  9
$DIMJUST
 70
     0
  9
$DIMSD1
 70
     0
  9
$DIMSD2
 70
     0
  9
$DIMTOLJ
 70
     0
  9
$DIMTZIN
 70
     1
  9
$DIMALTZ
 70
     0
  9
$DIMALTTZ
 70
     0
  9
$DIMUPT
 70
     0
  9
$DIMDEC
 70
     2
  9
$DIMTDEC
 70
     2
  9
$DIMALTU
 70
     2
  9
$DIMALTTD
 70
     3
  9
$DIMTXSTY
  7
Standard
  9
$DIMAUNIT
 70
     0
  9
$DIMADEC
 70
     2
  9
$DIMALTRND
 40
0.0
  9
$DIMAZIN
 70
     0
  9
$DIMDSEP
 70
    44
  9
$DIMATFIT
 70
     3
  9
$DIMFRAC
 70
     0
  9
$DIMLDRBLK
  1

  9
$DIMLUNIT
 70
     2
  9
$DIMLWD
 70
    -2
  9
$DIMLWE
 70
    -2
  9
$DIMTMOVE
 70
     0
  9
$LUNITS
 70
     2
  9
$LUPREC
 70
     2
  9
$SKETCHINC
 40
1.0
  9
$FILLETRAD
 40
10.0
  9
$AUNITS
 70
     0
  9
$AUPREC
 70
     2
  9
$MENU
  1
.
  9
$ELEVATION
 40
0.0
  9
$PELEVATION
 40
0.0
  9
$THICKNESS
 40
0.0
  9
$LIMCHECK
 70
     0
  9
$CHAMFERA
 40
0.0
  9
$CHAMFERB
 40
0.0
  9
$CHAMFERC
 40
0.0
  9
$CHAMFERD
 40
0.0
  9
$SKPOLY
 70
     0
  9
$TDCREATE
 40
2458862.406468715
  9
$TDUCREATE
 40
2458862.406468715
  9
$TDUPDATE
 40
2458862.40650235
  9
$TDUUPDATE
 40
2458862.40650235
  9
$TDINDWG
 40
0.0000000116
  9
$TDUSRTIMER
 40
0.0000000116
  9
$USRTIMER
 70
     1
  9
$ANGBASE
 50
0.0
  9
$ANGDIR
 70
     0
  9
$PDMODE
 70
     0
  9
$PDSIZE
 40
-1.0
  9
$PLINEWID
 40
0.0
  9
$SPLFRAME
 70
     0
  9
$SPLINETYPE
 70
     6
  9
$SPLINESEGS
 70
     8
  9
$HANDSEED
  5
436
  9
$SURFTAB1
 70
     6
  9
$SURFTAB2
 70
     6
  9
$SURFTYPE
 70
     6
  9
$SURFU
 70
     6
  9
$SURFV
 70
     6
  9
$UCSBASE
  2

  9
$UCSNAME
  2

  9
$UCSORG
 10
0.0
 20
0.0
 30
0.0
  9
$UCSXDIR
 10
1.0
 20
0.0
 30
0.0
  9
$UCSYDIR
 10
0.0
 20
1.0
 30
0.0
  9
$UCSORTHOREF
  2

  9
$UCSORTHOVIEW
 70
     0
  9
$UCSORGTOP
 10
0.0
 20
0.0
 30
0.0
  9
$UCSORGBOTTOM
 10
0.0
 20
0.0
 30
0.0
  9
$UCSORGLEFT
 10
0.0
 20
0.0
 30
0.0
  9
$UCSORGRIGHT
 10
0.0
 20
0.0
 30
0.0
  9
$UCSORGFRONT
 10
0.0
 20
0.0
 30
0.0
  9
$UCSORGBACK
 10
0.0
 20
0.0
 30
0.0
  9
$PUCSBASE
  2

  9
$PUCSNAME
  2

  9
$PUCSORG
 10
0.0
 20
0.0
 30
0.0
  9
$PUCSXDIR
 10
1.0
 20
0.0
 30
0.0
  9
$PUCSYDIR
 10
0.0
 20
1.0
 30
0.0
  9
$PUCSORTHOREF
  2

  9
$PUCSORTHOVIEW
 70
     0
  9
$PUCSORGTOP
 10
0.0
 20
0.0
 30
0.0
  9
$PUCSORGBOTTOM
 10
0.0
 20
0.0
 30
0.0
  9
$PUCSORGLEFT
 10
0.0
 20
0.0
 30
0.0
  9
$PUCSORGRIGHT
 10
0.0
 20
0.0
 30
0.0
  9
$PUCSORGFRONT
 10
0.0
 20
0.0
 30
0.0
  9
$PUCSORGBACK
 10
0.0
 20
0.0
 30
0.0
  9
$USERI1
 70
     0
  9
$USERI2
 70
     0
  9
$USERI3
 70
     0
  9
$USERI4
 70
     0
  9
$USERI5
 70
     0
  9
$USERR1
 40
0.0
  9
$USERR2
 40
0.0
  9
$USERR3
 40
0.0
  9
$USERR4
 40
0.0
  9
$USERR5
 40
0.0
  9
$WORLDVIEW
 70
     1
  9
$SHADEDGE
 70
     3
  9
$SHADEDIF
 70
    70
  9
$TILEMODE
 70
     1
  9
$MAXACTVP
 70
    64
  9
$PINSBASE
 10
0.0
 20
0.0
 30
0.0
  9
$PLIMCHECK
 70
     0
  9
$PEXTMIN
 10
-249.9645918664
 20
-15.6651628606
 30
0.0
  9
$PEXTMAX
 10
249.9216128117
 20
3.5
 30
0.0
  9
$PLIMMIN
 10
-288.8662420359
 20
-30.2532816742
  9
$PLIMMAX
 10
288.8232629811
 20
378.2140451056
  9
$UNITMODE
 70
     0
  9
$VISRETAIN
 70
     1
  9
$PLINEGEN
 70
     0
  9
$PSLTSCALE
 70
     1
  9
$TREEDEPTH
 70
  3020
  9
$CMLSTYLE
  2
Standard
  9
$CMLJUST
 70
     0
  9
$CMLSCALE
 40
20.0
  9
$PROXYGRAPHICS
 70
     1
  9
$MEASUREMENT
 70
     1
  9
$CELWEIGHT
370
    -1
  9
$ENDCAPS
280
     0
  9
$JOINSTYLE
280
     0
  9
$LWDISPLAY
290
     1
  9
$INSUNITS
 70
     4
  9
$HYPERLINKBASE
  1

  9
$STYLESHEET
  1

  9
$XEDIT
290
     1
  9
$CEPSNTYPE
380
     0
  9
$PSTYLEMODE
290
     1
  9
$FINGERPRINTGUID
  2
{e98bc9b7-f564-4474-8a7b-19b84b1a4df6}
  9
$VERSIONGUID
  2
{FAEB1C32-E019-11D5-929B-00C0DF256EC4}
  9
$EXTNAMES
290
     1
  9
$PSVPSCALE
 40
0.0
  9
$OLESTARTUP
290
     0
  0
ENDSEC
  0
SECTION
  2
CLASSES
  0
CLASS
  1
ACDBDICTIONARYWDFLT
  2
AcDbDictionaryWithDefault
  3
ObjectDBX Classes
 90
        0
280
     0
281
     0
  0
CLASS
  1
VISUALSTYLE
  2
AcDbVisualStyle
  3
ObjectDBX Classes
 90
     4095
280
     0
281
     0
  0
CLASS
  1
MATERIAL
  2
AcDbMaterial
  3
ObjectDBX Classes
 90
     1153
280
     0
281
     0
  0
CLASS
  1
SCALE
  2
AcDbScale
  3
ObjectDBX Classes
 90
     1153
280
     0
281
     0
  0
CLASS
  1
TABLESTYLE
  2
AcDbTableStyle
  3
ObjectDBX Classes
 90
     4095
280
     0
281
     0
  0
CLASS
  1
MLEADERSTYLE
  2
AcDbMLeaderStyle
  3
ACDB_MLEADERSTYLE_CLASS
 90
     4095
280
     0
281
     0
  0
CLASS
  1
SUN
  2
AcDbSun
  3
SCENEOE
 90
     1153
280
     0
281
     0
  0
CLASS
  1
ACDBPLACEHOLDER
  2
AcDbPlaceHolder
  3
ObjectDBX Classes
 90
        0
280
     0
281
     0
  0
CLASS
  1
LAYOUT
  2
AcDbLayout
  3
ObjectDBX Classes
 90
        0
280
     0
281
     0
  0
ENDSEC
  0
SECTION
  2
TABLES
  0
TABLE
  2
VPORT
  5
8
330
0
100
AcDbSymbolTable
 70
     1
  0
VPORT
  5
29
330
8
100
AcDbSymbolTableRecord
100
AcDbViewportTableRecord
  2
*Active
 70
     0
 10
0.0
 20
0.0
 11
1.0
 21
1.0
 12
0.0199765585
 22
-13.4857751564
 13
0.0
 23
0.0
 14
10.0
 24
10.0
 15
10.0
 25
10.0
 16
0.0
 26
0.0
 36
1.0
 17
0.0
 27
0.0
 37
0.0
 40
27.5109813191
 41
18.5337206405
 42
50.0
 43
0.0
 44
0.0
 50
0.0
 51
0.0
 71
     0
 72
   100
 73
     1
 74
     3
 75
     0
 76
     0
 77
     0
 78
     0
281
     0
 65
     1
110
0.0
120
0.0
130
0.0
111
1.0
121
0.0
131
0.0
112
0.0
122
1.0
132
0.0
 79
     0
146
0.0
  0
ENDTAB
  0
TABLE
  2
LTYPE
  5
5
330
0
100
AcDbSymbolTable
 70
     6
  0
LTYPE
  5
14
330
5
100
AcDbSymbolTableRecord
100
AcDbLinetypeTableRecord
  2
ByBlock
 70
     0
  3

 72
    65
 73
     0
 40
0.0
  0
LTYPE
  5
15
330
5
100
AcDbSymbolTableRecord
100
AcDbLinetypeTableRecord
  2
ByLayer
 70
     0
  3

 72
    65
 73
     0
 40
0.0
  0
LTYPE
  5
16
330
5
100
AcDbSymbolTableRecord
100
AcDbLinetypeTableRecord
  2
Continuous
 70
     0
  3
Solid line
 72
    65
 73
     0
 40
0.0
  0
LTYPE
  5
6E
330
5
100
AcDbSymbolTableRecord
100
AcDbLinetypeTableRecord
  2
HIDDEN
 70
     0
  3
Hidden __ __ __ __ __ __ __ __ __ __ __ __ __ __
 72
    65
 73
     2
 40
1.905
 49
1.27
 74
     0
 49
-0.635
 74
     0
  0
LTYPE
  5
6F
330
5
100
AcDbSymbolTableRecord
100
AcDbLinetypeTableRecord
  2
PHANTOM
 70
     0
  3
Phantom ______  __  __  ______  __  __  ______
 72
    65
 73
     6
 40
12.7
 49
6.35
 74
     0
 49
-1.27
 74
     0
 49
1.27
 74
     0
 49
-1.27
 74
     0
 49
1.27
 74
     0
 49
-1.27
 74
     0
  0
LTYPE
  5
70
330
5
100
AcDbSymbolTableRecord
100
AcDbLinetypeTableRecord
  2
CENTER
 70
     0
  3
Center ____ _ ____ _ ____ _ ____ _ ____ _ ____
 72
    65
 73
     4
 40
10.16
 49
6.35
 74
     0
 49
-1.27
 74
     0
 49
1.27
 74
     0
 49
-1.27
 74
     0
  0
LTYPE
  5
71
330
5
100
AcDbSymbolTableRecord
100
AcDbLinetypeTableRecord
  2
CENTERX2
 70
     0
  3
Center (2x) ________  __  ________  __  _____
 72
    65
 73
     4
 40
20.32
 49
12.7
 74
     0
 49
-2.54
 74
     0
 49
2.54
 74
     0
 49
-2.54
 74
     0
  0
LTYPE
  5
72
330
5
100
AcDbSymbolTableRecord
100
AcDbLinetypeTableRecord
  2
DOT2
 70
     0
  3
Dot (.5x) ........................................
 72
    65
 73
     2
 40
0.635
 49
0.0
 74
     0
 49
-0.635
 74
     0
  0
ENDTAB
  0
TABLE
  2
LAYER
  5
2
330
0
100
AcDbSymbolTable
 70
     1
  0
LAYER
  5
10
330
2
100
AcDbSymbolTableRecord
100
AcDbLayerTableRecord
  2
0
 70
     0
 62
     7
  6
Continuous
370
    -3
390
F
  0
ENDTAB
  0
TABLE
  2
STYLE
  5
3
330
0
100
AcDbSymbolTable
 70
     1
  0
STYLE
  5
11
330
3
100
AcDbSymbolTableRecord
100
AcDbTextStyleTableRecord
  2
Standard
 70
     0
 40
0.0
 41
1.0
 50
0.0
 71
     0
 42
3.5
  3
txt
  4

  0
ENDTAB
  0
TABLE
  2
VIEW
  5
6
330
0
100
AcDbSymbolTable
 70
     0
  0
ENDTAB
  0
TABLE
  2
UCS
  5
7
330
0
100
AcDbSymbolTable
 70
     0
  0
ENDTAB
  0
TABLE
  2
APPID
  5
9
330
0
100
AcDbSymbolTable
 70
     1
  0
APPID
  5
12
330
9
100
AcDbSymbolTableRecord
100
AcDbRegAppTableRecord
  2
ACAD
 70
     0
  0
ENDTAB
  0
TABLE
  2
DIMSTYLE
  5
A
330
0
100
AcDbSymbolTable
 70
     1
100
AcDbDimStyleTable
  0
DIMSTYLE
105
27
330
A
100
AcDbSymbolTableRecord
100
AcDbDimStyleTableRecord
  2
ISO-25
 70
     0
 41
2.5
 42
0.625
 43
3.75
 44
1.25
 73
     0
 74
     0
 77
     1
 78
     8
140
2.5
141
2.5
143
0.0393700787
147
0.625
171
     3
172
     1
178
     0
271
     2
272
     2
274
     3
278
    44
283
     0
284
     8
340
11
  0
ENDTAB
  0
TABLE
  2
BLOCK_RECORD
  5
1
330
0
100
AcDbSymbolTable
 70
     9
  0
BLOCK_RECORD
  5
1F
330
1
100
AcDbSymbolTableRecord
100
AcDbBlockTableRecord
  2
*Model_Space
340
22
  0
BLOCK_RECORD
  5
1B
330
1
100
AcDbSymbolTableRecord
100
AcDbBlockTableRecord
  2
*Paper_Space
340
1E
  0
BLOCK_RECORD
  5
23
330
1
100
AcDbSymbolTableRecord
100
AcDbBlockTableRecord
  2
*Paper_Space0
340
26
  0
BLOCK_RECORD
  5
153
330
1
100
AcDbSymbolTableRecord
100
AcDbBlockTableRecord
  2
*Paper_Space1
340
154
  0
BLOCK_RECORD
  5
18C
330
1
100
AcDbSymbolTableRecord
100
AcDbBlockTableRecord
  2
*Paper_Space2
340
18D
  0
BLOCK_RECORD
  5
1D1
330
1
100
AcDbSymbolTableRecord
100
AcDbBlockTableRecord
  2
*Paper_Space3
340
1D2
  0
BLOCK_RECORD
  5
22B
330
1
100
AcDbSymbolTableRecord
100
AcDbBlockTableRecord
  2
*Paper_Space4
340
22C
  0
BLOCK_RECORD
  5
28C
330
1
100
AcDbSymbolTableRecord
100
AcDbBlockTableRecord
  2
*Paper_Space5
340
28D
  0
BLOCK_RECORD
  5
2EC
330
1
100
AcDbSymbolTableRecord
100
AcDbBlockTableRecord
  2
*Paper_Space6
340
2ED
  0
BLOCK_RECORD
  5
34A
330
1
100
AcDbSymbolTableRecord
100
AcDbBlockTableRecord
  2
*Paper_Space7
340
34B
  0
BLOCK_RECORD
  5
3AC
330
1
100
AcDbSymbolTableRecord
100
AcDbBlockTableRecord
  2
*Paper_Space8
340
3AD
  0
ENDTAB
  0
ENDSEC
  0
SECTION
  2
BLOCKS
  0
BLOCK
  5
20
330
1F
100
AcDbEntity
  8
0
100
AcDbBlockBegin
  2
*Model_Space
 70
     0
 10
0.0
 20
0.0
 30
0.0
  3
*Model_Space
  1

  0
ENDBLK
  5
21
330
1F
100
AcDbEntity
  8
0
100
AcDbBlockEnd
  0
BLOCK
  5
1C
330
1B
100
AcDbEntity
 67
     1
  8
0
100
AcDbBlockBegin
  2
*Paper_Space
 70
     0
 10
0.0
 20
0.0
 30
0.0
  3
*Paper_Space
  1

  0
ENDBLK
  5
1D
330
1B
100
AcDbEntity
 67
     1
  8
0
100
AcDbBlockEnd
  0
BLOCK
  5
24
330
23
100
AcDbEntity
  8
0
100
AcDbBlockBegin
  2
*Paper_Space0
 70
     0
 10
0.0
 20
0.0
 30
0.0
  3
*Paper_Space0
  1

  0
LWPOLYLINE
  5
116
330
23
100
AcDbEntity
  8
0
  6
Continuous
 62
     7
370
    25
100
AcDbPolyline
 90
        9
 70
   128
 43
0.0
 10
3.5
 20
-9.8100257504
 10
3.4961570561
 20
-9.7971361163
 10
3.4847759065
 20
-9.7847418236
 10
3.4662939225
 20
-9.773319178
 10
3.4414213562
 20
-9.7633071453
 10
3.4111140466
 20
-9.7550904825
 10
3.3765366865
 20
-9.7489849513
 10
3.3390180644
 20
-9.7452251837
 10
3.3
 20
-9.7439556655
  0
LWPOLYLINE
  5
11C
330
23
100
AcDbEntity
  8
0
  6
Continuous
 62
     7
370
    25
100
AcDbPolyline
 90
        9
 70
   128
 43
0.0
 10
-3.5321553546
 20
-0.160776773
 10
-3.5263080711
 20
-0.1495561303
 10
-3.5137382388
 20
-0.1401177625
 10
-3.494889973
 20
-0.1327951443
 10
-3.4704292177
 20
-0.1278469974
 10
-3.4412202163
 20
-0.1254481489
 10
-3.4082949766
 20
-0.1256833546
 10
-3.372816808
 20
-0.1285443042
 10
-3.3360392195
 20
-0.1339299151
  0
LWPOLYLINE
  5
121
330
23
100
AcDbEntity
  8
0
  6
Continuous
 62
     7
370
    25
100
AcDbPolyline
 90
        9
 70
   128
 43
0.0
 10
3.5
 20
-0.2
 10
3.4961570561
 20
-0.1871103659
 10
3.4847759065
 20
-0.1747160731
 10
3.4662939225
 20
-0.1632934275
 10
3.4414213562
 20
-0.1532813949
 10
3.4111140466
 20
-0.1450647321
 10
3.3765366865
 20
-0.1389592008
 10
3.3390180644
 20
-0.1351994332
 10
3.3
 20
-0.1339299151
  0
LINE
  5
138
330
23
100
AcDbEntity
  8
0
  6
Continuous
 62
     7
370
    25
100
AcDbLine
 10
-15.4671541134
 20
-26.9715503129
 30
0.0
 11
-9.3886967964
 21
-26.9715503129
 31
0.0
  0
LINE
  5
139
330
23
100
AcDbEntity
  8
0
  6
Continuous
 62
     7
370
    25
100
AcDbLine
 10
3.3
 20
-10.1329479032
 30
0.0
 11
3.3
 21
0.0
 31
0.0
  0
LINE
  5
13A
330
23
100
AcDbEntity
  8
0
  6
Continuous
 62
     7
370
    25
100
AcDbLine
 10
-5.6742373828
 20
-10.871186914
 30
0.0
 11
-3.5321553546
 21
-0.160776773
 31
0.0
  0
LINE
  5
13B
330
23
100
AcDbEntity
  8
0
  6
Continuous
 62
     7
370
    25
100
AcDbLine
 10
-5.2580443695
 20
-9.7439556655
 30
0.0
 11
3.3
 21
-9.7439556655
 31
0.0
  0
LINE
  5
13C
330
23
100
AcDbEntity
  8
0
  6
Continuous
 62
     7
370
    25
100
AcDbLine
 10
3.3
 20
-10.0098927176
 30
0.0
 11
-5.5019785435
 21
-10.0098927176
 31
0.0
  0
LINE
  5
13D
330
23
100
AcDbEntity
  8
0
  6
Continuous
 62
     7
370
    25
100
AcDbLine
 10
-3.3360392195
 20
-0.1339299151
 30
0.0
 11
-5.2580443695
 21
-9.7439556655
 31
0.0
  0
LINE
  5
13E
330
23
100
AcDbEntity
  8
0
  6
Continuous
 62
     7
370
    25
100
AcDbLine
 10
3.3
 20
-0.1339299151
 30
0.0
 11
-3.3360392195
 21
-0.1339299151
 31
0.0
  0
LINE
  5
13F
330
23
100
AcDbEntity
  8
0
  6
Continuous
 62
     7
370
    25
100
AcDbLine
 10
3.5
 20
-0.2
 30
0.0
 11
3.5
 21
-9.9330809361
 31
0.0
  0
LINE
  5
140
330
23
100
AcDbEntity
  8
0
  6
Continuous
 62
     7
370
    25
100
AcDbLine
 10
-15.465212109
 20
-26.9682244909
 30
0.0
 11
-9.3862908572
 21
-26.9682244909
 31
0.0
  0
LINE
  5
141
330
23
100
AcDbEntity
  8
0
  6
Continuous
 62
     7
370
    25
100
AcDbLine
 10
-5.6742373828
 20
-10.871186914
 30
0.0
 11
-15.465212109
 21
-26.9682244909
 31
0.0
  0
LINE
  5
142
330
23
100
AcDbEntity
  8
0
  6
Continuous
 62
     7
370
    25
100
AcDbLine
 10
-9.3862908572
 20
-26.9682244909
 30
0.0
 11
3.3
 21
-10.1329479032
 31
0.0
  0
LINE
  5
143
330
23
100
AcDbEntity
  8
0
  6
Continuous
 62
     7
370
    25
100
AcDbLine
 10
-3.3360392195
 20
-0.1339299151
 30
0.0
 11
-3.3360392195
 21
0.0
 31
0.0
  0
LINE
  5
144
330
23
100
AcDbEntity
  8
0
  6
Continuous
 62
     7
370
    25
100
AcDbLine
 10
-3.3360392195
 20
0.0
 30
0.0
 11
3.3
 21
0.0
 31
0.0
  0
LINE
  5
145
330
23
100
AcDbEntity
  8
0
  6
Continuous
 62
     7
370
    25
100
AcDbLine
 10
3.459727102
 20
-10.0534439407
 30
0.0
 11
-9.2289688118
 21
-26.8919121463
 31
0.0
  0
LINE
  5
146
330
23
100
AcDbEntity
  8
0
  6
Continuous
 62
     7
370
    25
100
AcDbLine
 10
-15.6380274268
 20
-26.6676161474
 30
0.0
 11
-5.5
 21
-10.0
 31
0.0
  0
LINE
  5
147
330
23
100
AcDbEntity
  8
0
  6
Continuous
 62
     7
370
    25
100
AcDbLine
 10
-15.465212109
 20
-26.9682244909
 30
0.0
 11
-15.4671540872
 21
-26.971550268
 31
0.0
  0
LINE
  5
148
330
23
100
AcDbEntity
  8
0
  6
Continuous
 62
     7
370
    25
100
AcDbLine
 10
-9.3886967964
 20
-26.9715503129
 30
0.0
 11
-9.3862908572
 21
-26.9682244909
 31
0.0
  0
ARC
  5
149
330
23
100
AcDbEntity
  8
0
  6
Continuous
 62
     7
370
    25
100
AcDbCircle
 10
-15.4671541134
 20
-26.7715503129
 30
0.0
 40
0.2000000000000003
100
AcDbArc
 50
148.690067526
 51
270.0
  0
ARC
  5
14A
330
23
100
AcDbEntity
  8
0
  6
Continuous
 62
     7
370
    25
100
AcDbCircle
 10
3.3000664943
 20
-9.8099592119
 30
0.0
 40
0.1999335167544494
100
AcDbArc
 50
269.9809444464
 51
359.9809317629
  0
ARC
  5
14B
330
23
100
AcDbEntity
  8
0
  6
Continuous
 62
     7
370
    25
100
AcDbCircle
 10
-4.7994375727
 20
-10.4263134687
 30
0.0
 40
0.8221510601874938
100
AcDbArc
 50
123.9047074316
 51
148.2855789299
  0
ARC
  5
14C
330
23
100
AcDbEntity
  8
0
  6
Continuous
 62
     7
370
    25
100
AcDbCircle
 10
3.3000664943
 20
-9.9330143975
 30
0.0
 40
0.1999335167544458
100
AcDbArc
 50
269.9809444464
 51
359.9809317629
  0
ARC
  5
14D
330
23
100
AcDbEntity
  8
0
  6
Continuous
 62
     7
370
    25
100
AcDbCircle
 10
3.3
 20
-0.2
 30
0.0
 40
0.200000000000002
100
AcDbArc
 50
0.0
 51
90.0
  0
ARC
  5
14E
330
23
100
AcDbEntity
  8
0
  6
Continuous
 62
     7
370
    25
100
AcDbCircle
 10
-3.3360392195
 20
-0.2
 30
0.0
 40
0.2000000000000007
100
AcDbArc
 50
90.0
 51
168.690067526
  0
ARC
  5
14F
330
23
100
AcDbEntity
  8
0
  6
Continuous
 62
     7
370
    25
100
AcDbCircle
 10
3.3
 20
-9.9330809361
 30
0.0
 40
0.2000000000000244
100
AcDbArc
 50
323.0
 51
360.0
  0
ARC
  5
150
330
23
100
AcDbEntity
  8
0
  6
Continuous
 62
     7
370
    25
100
AcDbCircle
 10
3.3002382282
 20
-9.9332250015
 30
0.0
 40
0.1997230437489862
100
AcDbArc
 50
269.9316579909
 51
322.9918775232
  0
ARC
  5
151
330
23
100
AcDbEntity
  8
0
  6
Continuous
 62
     7
370
    25
100
AcDbCircle
 10
-9.386052629
 20
-26.7685015892
 30
0.0
 40
0.19972304374894
100
AcDbArc
 50
269.9316579908
 51
322.9918775232
  0
ARC
  5
152
330
23
100
AcDbEntity
  8
0
  6
Continuous
 62
     7
370
    25
100
AcDbCircle
 10
-15.465134069
 20
-26.7682260799
 30
0.0
 40
0.1999984262222032
100
AcDbArc
 50
148.7338579903
 51
269.9776430284
  0
VIEWPORT
  5
424
330
23
100
AcDbEntity
  8
0
100
AcDbViewport
 10
0.0
 20
0.0
 30
0.0
 40
205.6
 41
156.0
 68
     1
 69
     1
 12
0.0199765585
 22
-13.4857751564
 13
0.0
 23
0.0
 14
10.0
 24
10.0
 15
10.0
 25
10.0
 16
0.0
 26
0.0
 36
1.0
 17
0.0
 27
0.0
 37
0.0
 42
50.0
 43
0.0
 44
0.0
 45
386.8745690718
 50
0.0
 51
0.0
 72
   100
 90
   557152
  1

281
     0
 71
     1
 74
     0
110
0.0
120
0.0
130
0.0
111
1.0
121
0.0
131
0.0
112
0.0
122
1.0
132
0.0
 79
     0
146
0.0
  0
ENDBLK
  5
25
330
23
100
AcDbEntity
  8
0
100
AcDbBlockEnd
  0
BLOCK
  5
155
330
153
100
AcDbEntity
  8
0
100
AcDbBlockBegin
  2
*Paper_Space1
 70
     0
 10
0.0
 20
0.0
 30
0.0
  3
*Paper_Space1
  1

  0
LWPOLYLINE
  5
15D
330
153
100
AcDbEntity
  8
0
  6
Continuous
 62
     7
370
    25
100
AcDbPolyline
 90
       14
 70
   128
 43
0.0
 10
241.6675554398
 20
-10.0
 10
242.2571752655
 20
-10.0075851923
 10
242.4908281336
 20
-10.0301400904
 10
242.3623323706
 20
-10.0670679672
 10
241.8750875445
 20
-10.1173918344
 10
241.0419845242
 20
-10.1797802909
 10
239.8850644297
 20
-10.2525827466
 10
238.4349354979
 20
-10.3338730922
 10
236.7299632912
 20
-10.4215006569
 10
234.8152556728
 20
-10.5131471083
 10
232.7414694033
 20
-10.6063877878
 10
230.5634699329
 20
-10.6987558588
 10
228.3388798442
 20
-10.787807571
 10
226.126554352
 20
-10.871186914
  0
SPLINE
  5
161
330
153
100
AcDbEntity
  8
0
  6
Continuous
 62
     7
370
    25
100
AcDbSpline
210
0.0
220
0.0
230
1.0
 70
     8
 71
     3
 72
    18
 73
    14
 74
     0
 42
0.000000001
 43
0.00000001
 40
0.0
 40
0.0
 40
0.0
 40
0.0
 40
0.5000000000000288
 40
0.5000000000000288
 40
0.7500000000000434
 40
0.7500000000000434
 40
0.8750000000000504
 40
0.8750000000000504
 40
0.9375000000000426
 40
0.9375000000000426
 40
0.9687500000000213
 40
0.9687500000000213
 40
1.0
 40
1.0
 40
1.0
 40
1.0
 10
-248.8372446237877
 20
-10.81810324672146
 30
0.0
 10
-248.9997067293827
 20
-10.70520623964892
 30
0.0
 10
-249.1545633019081
 20
-10.58175253262282
 30
0.0
 10
-249.3675972834326
 20
-10.37710852437093
 30
0.0
 10
-249.4360919379685
 20
-10.30570726500519
 30
0.0
 10
-249.5242508446413
 20
-10.18750082053936
 30
0.0
 10
-249.5524954052285
 20
-10.14617957725112
 30
0.0
 10
-249.5772666835757
 20
-10.07717739022959
 30
0.0
 10
-249.5837222990578
 20
-10.05050391362566
 30
0.0
 10
-249.5670574491614
 20
-10.01768809497631
 30
0.0
 10
-249.5564032288829
 20
-10.00964817986481
 30
0.0
 10
-249.5330111377799
 20
-10.00124372467595
 30
0.0
 10
-249.5203953637698
 20
-10.00000000000002
 30
0.0
 10
-249.5078747285443
 20
-10.00000000000001
 30
0.0
  0
SPLINE
  5
16B
330
153
100
AcDbEntity
  8
0
  6
Continuous
 62
     7
370
    25
100
AcDbSpline
210
0.0
220
0.0
230
1.0
 70
     8
 71
     3
 72
     8
 73
     4
 74
     0
 42
0.000000001
 43
0.00000001
 40
0.0
 40
0.0
 40
0.0
 40
0.0
 40
0.0000453377850437
 40
0.0000453377850437
 40
0.0000453377850437
 40
0.0000453377850437
 10
-249.8413256270231
 20
-10.11283913876437
 30
0.0
 10
-249.853566785714
 20
-10.10414870624985
 30
0.0
 10
-249.8657194495013
 20
-10.09551763225035
 30
0.0
 10
-249.8774024665147
 20
-10.08721706836374
 30
0.0
  0
LINE
  5
174
330
153
100
AcDbEntity
  8
0
  6
Continuous
 62
     7
370
    25
100
AcDbLine
 10
249.728906333
 20
-10.0098927176
 30
0.0
 11
-214.9863061736
 21
-26.9682244909
 31
0.0
  0
LINE
  5
175
330
153
100
AcDbEntity
  8
0
  6
Continuous
 62
     7
370
    25
100
AcDbLine
 10
-214.9935996949
 20
-26.6644240781
 30
0.0
 11
241.6675554398
 21
-10.0
 31
0.0
  0
LINE
  5
176
330
153
100
AcDbEntity
  8
0
  6
Continuous
 62
     7
370
    25
100
AcDbLine
 10
-249.5078747285
 20
-10.0
 30
0.0
 11
241.6675554398
 21
-10.0
 31
0.0
  0
LINE
  5
177
330
153
100
AcDbEntity
  8
0
  6
Continuous
 62
     7
370
    25
100
AcDbLine
 10
249.7997740502
 20
-9.9941203478
 30
0.0
 11
246.358103799
 21
-0.160776773
 31
0.0
  0
LINE
  5
178
330
153
100
AcDbEntity
  8
0
  6
Continuous
 62
     7
370
    25
100
AcDbLine
 10
-246.358103799
 20
-0.160776773
 30
0.0
 11
-249.841325627
 21
-10.1128391388
 31
0.0
  0
LINE
  5
179
330
153
100
AcDbEntity
  8
0
  6
Continuous
 62
     7
370
    25
100
AcDbLine
 10
246.358103799
 20
-0.160776773
 30
0.0
 11
-246.358103799
 21
-0.160776773
 31
0.0
  0
LINE
  5
17A
330
153
100
AcDbEntity
  8
0
  6
Continuous
 62
     7
370
    25
100
AcDbLine
 10
-248.8372446238
 20
-10.8181032467
 30
0.0
 11
-249.841325627
 21
-10.1128391388
 31
0.0
  0
LINE
  5
17B
330
153
100
AcDbEntity
  8
0
  6
Continuous
 62
     7
370
    25
100
AcDbLine
 10
-249.9503375999
 20
-9.8581074284
 30
0.0
 11
-246.5468754703
 21
-0.1339299151
 31
0.0
  0
LINE
  5
17C
330
153
100
AcDbEntity
  8
0
  6
Continuous
 62
     7
370
    25
100
AcDbLine
 10
246.5468754703
 20
-0.1339299151
 30
0.0
 11
249.9103844829
 21
-9.7439556655
 31
0.0
  0
LINE
  5
17D
330
153
100
AcDbEntity
  8
0
  6
Continuous
 62
     7
370
    25
100
AcDbLine
 10
-246.358103799
 20
-0.160776773
 30
0.0
 11
-246.358103799
 21
0.0
 31
0.0
  0
LINE
  5
17E
330
153
100
AcDbEntity
  8
0
  6
Continuous
 62
     7
370
    25
100
AcDbLine
 10
-246.358103799
 20
0.0
 30
0.0
 11
246.358103799
 21
0.0
 31
0.0
  0
LINE
  5
17F
330
153
100
AcDbEntity
  8
0
  6
Continuous
 62
     7
370
    25
100
AcDbLine
 10
246.358103799
 20
-0.160776773
 30
0.0
 11
246.358103799
 21
0.0
 31
0.0
  0
ARC
  5
180
330
153
100
AcDbEntity
  8
0
  6
Continuous
 62
     7
370
    25
100
AcDbCircle
 10
-215.1686442081
 20
-21.9715503129
 30
0.0
 40
4.999999999999807
100
AcDbArc
 50
252.1077610882
 51
272.0899033619
  0
ARC
  5
181
330
153
100
AcDbEntity
  8
0
  6
Continuous
 62
     7
370
    25
100
AcDbCircle
 10
-216.2315741288
 20
-26.674997076
 30
0.0
 40
0.4763634901316398
100
AcDbArc
 50
149.8129507347
 51
186.5977621769
  0
ARC
  5
182
330
153
100
AcDbEntity
  8
0
  6
Continuous
 62
     7
370
    25
100
AcDbCircle
 10
-215.1686442081
 20
-21.8676168672
 30
0.0
 40
4.800000000000154
100
AcDbArc
 50
252.1077610882
 51
272.0899033619
  0
ARC
  5
183
330
153
100
AcDbEntity
  8
0
  6
Continuous
 62
     7
370
    25
100
AcDbCircle
 10
-218.7709799043
 20
-26.9070976998
 30
0.0
 40
3.785167332172904
100
AcDbArc
 50
359.074688361
 51
3.6758525717
  0
ARC
  5
184
330
153
100
AcDbEntity
  8
0
  6
Continuous
 62
     7
370
    25
100
AcDbCircle
 10
-179.2296522241
 20
89.4531979608
 30
0.0
 40
121.7783525221827
100
AcDbArc
 50
234.7532077775
 51
252.1077610882
  0
ARC
  5
185
330
153
100
AcDbEntity
  8
0
  6
Continuous
 62
     7
370
    25
100
AcDbCircle
 10
-179.2296522241
 20
89.3492645152
 30
0.0
 40
121.978352522182
100
AcDbArc
 50
235.2040660788
 51
252.1077610882
  0
ARC
  5
186
330
153
100
AcDbEntity
  8
0
  6
Continuous
 62
     7
370
    25
100
AcDbCircle
 10
249.7216128117
 20
-9.8100257504
 30
0.0
 40
0.2000000000001434
100
AcDbArc
 50
272.0899033619
 51
19.2900462192
  0
ARC
  5
187
330
153
100
AcDbEntity
  8
0
  6
Continuous
 62
     7
370
    25
100
AcDbCircle
 10
-249.7615659287
 20
-9.9241775133
 30
0.0
 40
0.200000000000001
100
AcDbArc
 50
160.7099537808
 51
234.6069221345
  0
ARC
  5
188
330
153
100
AcDbEntity
  8
0
  6
Continuous
 62
     7
370
    25
100
AcDbCircle
 10
-246.4892704268
 20
-0.4059747302
 30
0.0
 40
0.2780768283799425
100
AcDbArc
 50
61.8558130041
 51
101.9556878879
  0
ARC
  5
189
330
153
100
AcDbEntity
  8
0
  6
Continuous
 62
     7
370
    25
100
AcDbCircle
 10
246.4892704268
 20
-0.4059747302
 30
0.0
 40
0.2780768283802332
100
AcDbArc
 50
78.0443121121
 51
118.1441869959
  0
ARC
  5
18A
330
153
100
AcDbEntity
  8
0
  6
Continuous
 62
     7
370
    25
100
AcDbCircle
 10
-246.358103799
 20
-0.2
 30
0.0
 40
0.2000000000000167
100
AcDbArc
 50
90.0
 51
160.7099537808
  0
ARC
  5
18B
330
153
100
AcDbEntity
  8
0
  6
Continuous
 62
     7
370
    25
100
AcDbCircle
 10
246.358103799
 20
-0.2
 30
0.0
 40
0.199999999999964
100
AcDbArc
 50
19.2900462192
 51
90.0
  0
VIEWPORT
  5
426
330
153
100
AcDbEntity
  8
0
100
AcDbViewport
 10
0.0
 20
0.0
 30
0.0
 40
205.6
 41
156.0
 68
     1
 69
     1
 12
0.0199765585
 22
-13.4857751564
 13
0.0
 23
0.0
 14
10.0
 24
10.0
 15
10.0
 25
10.0
 16
0.0
 26
0.0
 36
1.0
 17
0.0
 27
0.0
 37
0.0
 42
50.0
 43
0.0
 44
0.0
 45
386.8745690718
 50
0.0
 51
0.0
 72
   100
 90
   557152
  1

281
     0
 71
     1
 74
     0
110
0.0
120
0.0
130
0.0
111
1.0
121
0.0
131
0.0
112
0.0
122
1.0
132
0.0
 79
     0
146
0.0
  0
ENDBLK
  5
156
330
153
100
AcDbEntity
  8
0
100
AcDbBlockEnd
  0
BLOCK
  5
18E
330
18C
100
AcDbEntity
  8
0
100
AcDbBlockBegin
  2
*Paper_Space2
 70
     0
 10
0.0
 20
0.0
 30
0.0
  3
*Paper_Space2
  1

  0
LWPOLYLINE
  5
192
330
18C
100
AcDbEntity
  8
0
  6
Continuous
 62
     7
370
    25
100
AcDbPolyline
 90
        9
 70
   128
 43
0.0
 10
-3.5
 20
-9.9241775133
 10
-3.4961570561
 20
-9.9112878792
 10
-3.4847759065
 20
-9.8988935865
 10
-3.4662939225
 20
-9.8874709409
 10
-3.4414213562
 20
-9.8774589082
 10
-3.4111140466
 20
-9.8692422454
 10
-3.3765366865
 20
-9.8631367142
 10
-3.3390180644
 20
-9.8593769466
 10
-3.3
 20
-9.8581074284
  0
SPLINE
  5
196
330
18C
100
AcDbEntity
  8
0
  6
Continuous
 62
     7
370
    25
100
AcDbSpline
210
0.0
220
0.0
230
1.0
 70
     8
 71
     3
 72
     8
 73
     4
 74
     0
 42
0.000000001
 43
0.00000001
 40
0.0
 40
0.0
 40
0.0
 40
0.0
 40
0.0000453377850437
 40
0.0000453377850437
 40
0.0000453377850437
 40
0.0000453377850437
 10
5.522567827752872
 20
-10.11283913876437
 30
0.0
 10
5.520829741249969
 20
-10.10414870624985
 30
0.0
 10
5.51748998452468
 20
-10.09551763225035
 30
0.0
 10
5.5126943322536
 20
-10.08721706836374
 30
0.0
  0
LWPOLYLINE
  5
199
330
18C
100
AcDbEntity
  8
0
  6
Continuous
 62
     7
370
    25
100
AcDbPolyline
 90
        9
 70
   128
 43
0.0
 10
3.5321553546
 20
-0.160776773
 10
3.5263080711
 20
-0.1495561303
 10
3.5137382388
 20
-0.1401177625
 10
3.494889973
 20
-0.1327951443
 10
3.4704292177
 20
-0.1278469974
 10
3.4412202163
 20
-0.1254481489
 10
3.4082949766
 20
-0.1256833546
 10
3.372816808
 20
-0.1285443042
 10
3.3360392195
 20
-0.1339299151
  0
LWPOLYLINE
  5
19F
330
18C
100
AcDbEntity
  8
0
  6
Continuous
 62
     7
370
    25
100
AcDbPolyline
 90
        9
 70
   128
 43
0.0
 10
-3.5
 20
-0.2
 10
-3.4961570561
 20
-0.1871103659
 10
-3.4847759065
 20
-0.1747160731
 10
-3.4662939225
 20
-0.1632934275
 10
-3.4414213562
 20
-0.1532813949
 10
-3.4111140466
 20
-0.1450647321
 10
-3.3765366865
 20
-0.1389592008
 10
-3.3390180644
 20
-0.1351994332
 10
-3.3
 20
-0.1339299151
  0
LINE
  5
1B6
330
18C
100
AcDbEntity
  8
0
  6
Continuous
 62
     7
370
    25
100
AcDbLine
 10
9.3886967964
 20
-26.9715503129
 30
0.0
 11
15.4671541134
 21
-26.9715503129
 31
0.0
  0
LINE
  5
1B7
330
18C
100
AcDbEntity
  8
0
  6
Continuous
 62
     7
370
    25
100
AcDbLine
 10
-3.3
 20
0.0
 30
0.0
 11
-3.3
 21
-10.0961351135
 31
0.0
  0
LINE
  5
1B8
330
18C
100
AcDbEntity
  8
0
  6
Continuous
 62
     7
370
    25
100
AcDbLine
 10
3.5321553546
 20
-0.160776773
 30
0.0
 11
5.6636206493
 21
-10.8181032467
 31
0.0
  0
LINE
  5
1B9
330
18C
100
AcDbEntity
  8
0
  6
Continuous
 62
     7
370
    25
100
AcDbLine
 10
5.2808747221
 20
-9.8581074284
 30
0.0
 11
3.3360392195
 21
-0.1339299151
 31
0.0
  0
LINE
  5
1BA
330
18C
100
AcDbEntity
  8
0
  6
Continuous
 62
     7
370
    25
100
AcDbLine
 10
5.5126943323
 20
-10.0872170684
 30
0.0
 11
-3.3
 21
-10.0872170684
 31
0.0
  0
LINE
  5
1BB
330
18C
100
AcDbEntity
  8
0
  6
Continuous
 62
     7
370
    25
100
AcDbLine
 10
-3.3
 20
-9.8581074284
 30
0.0
 11
5.2808747221
 21
-9.8581074284
 31
0.0
  0
LINE
  5
1BC
330
18C
100
AcDbEntity
  8
0
  6
Continuous
 62
     7
370
    25
100
AcDbLine
 10
3.3360392195
 20
-0.1339299151
 30
0.0
 11
-3.3
 21
-0.1339299151
 31
0.0
  0
LINE
  5
1BD
330
18C
100
AcDbEntity
  8
0
  6
Continuous
 62
     7
370
    25
100
AcDbLine
 10
-3.5
 20
-9.9330809361
 30
0.0
 11
-3.5
 21
-0.2
 31
0.0
  0
LINE
  5
1BE
330
18C
100
AcDbEntity
  8
0
  6
Continuous
 62
     7
370
    25
100
AcDbLine
 10
15.3259513602
 20
-26.7297304559
 30
0.0
 11
5.6636206493
 21
-10.8181032467
 31
0.0
  0
LINE
  5
1BF
330
18C
100
AcDbEntity
  8
0
  6
Continuous
 62
     7
370
    25
100
AcDbLine
 10
9.2137614371
 20
-26.7297304559
 30
0.0
 11
15.3259513602
 21
-26.7297304559
 31
0.0
  0
LINE
  5
1C0
330
18C
100
AcDbEntity
  8
0
  6
Continuous
 62
     7
370
    25
100
AcDbLine
 10
-3.3
 20
-10.0961351135
 30
0.0
 11
9.2137614371
 21
-26.7297304559
 31
0.0
  0
LINE
  5
1C1
330
18C
100
AcDbEntity
  8
0
  6
Continuous
 62
     7
370
    25
100
AcDbLine
 10
9.2289688118
 20
-26.8919121463
 30
0.0
 11
-3.459727102
 21
-10.0534439407
 31
0.0
  0
LINE
  5
1C2
330
18C
100
AcDbEntity
  8
0
  6
Continuous
 62
     7
370
    25
100
AcDbLine
 10
5.5
 20
-10.0
 30
0.0
 11
15.6380274268
 21
-26.6676161474
 31
0.0
  0
LINE
  5
1C3
330
18C
100
AcDbEntity
  8
0
  6
Continuous
 62
     7
370
    25
100
AcDbLine
 10
3.3360392195
 20
0.0
 30
0.0
 11
3.3360392195
 21
-0.1339299151
 31
0.0
  0
LINE
  5
1C4
330
18C
100
AcDbEntity
  8
0
  6
Continuous
 62
     7
370
    25
100
AcDbLine
 10
-3.3
 20
0.0
 30
0.0
 11
3.3360392195
 21
0.0
 31
0.0
  0
LINE
  5
1C5
330
18C
100
AcDbEntity
  8
0
  6
Continuous
 62
     7
370
    25
100
AcDbLine
 10
15.4671541001
 20
-26.9715502901
 30
0.0
 11
15.3259513602
 21
-26.7297304559
 31
0.0
  0
LINE
  5
1C6
330
18C
100
AcDbEntity
  8
0
  6
Continuous
 62
     7
370
    25
100
AcDbLine
 10
9.2137614371
 20
-26.7297304559
 30
0.0
 11
9.3886967964
 21
-26.9715503129
 31
0.0
  0
ARC
  5
1C7
330
18C
100
AcDbEntity
  8
0
  6
Continuous
 62
     7
370
    25
100
AcDbCircle
 10
15.4671541134
 20
-26.7715503129
 30
0.0
 40
0.1999999999999993
100
AcDbArc
 50
270.0
 51
31.309932474
  0
ARC
  5
1C8
330
18C
100
AcDbEntity
  8
0
  6
Continuous
 62
     7
370
    25
100
AcDbCircle
 10
-3.3167726294
 20
-9.9036025929
 30
0.0
 40
0.1843789486291706
100
AcDbArc
 50
186.4070032296
 51
275.2193119533
  0
ARC
  5
1C9
330
18C
100
AcDbEntity
  8
0
  6
Continuous
 62
     7
370
    25
100
AcDbCircle
 10
4.6086990705
 20
-10.7700693908
 30
0.0
 40
1.132914263080456
100
AcDbArc
 50
37.0663621199
 51
53.6073554369
  0
ARC
  5
1CA
330
18C
100
AcDbEntity
  8
0
  6
Continuous
 62
     7
370
    25
100
AcDbCircle
 10
-3.3167666691
 20
-9.9125151716
 30
0.0
 40
0.1843838502614596
100
AcDbArc
 50
186.4039691819
 51
275.2173129908
  0
ARC
  5
1CB
330
18C
100
AcDbEntity
  8
0
  6
Continuous
 62
     7
370
    25
100
AcDbCircle
 10
9.1979828983
 20
-26.5484433434
 30
0.0
 40
0.1819724690006045
100
AcDbArc
 50
217.7166461631
 51
274.9742708505
  0
ARC
  5
1CC
330
18C
100
AcDbEntity
  8
0
  6
Continuous
 62
     7
370
    25
100
AcDbCircle
 10
-3.3477771621
 20
-9.9547397465
 30
0.0
 40
0.149249144111292
100
AcDbArc
 50
221.4020289229
 51
288.6699900758
  0
ARC
  5
1CD
330
18C
100
AcDbEntity
  8
0
  6
Continuous
 62
     7
370
    25
100
AcDbCircle
 10
-3.3
 20
-9.9330809361
 30
0.0
 40
0.2000000000001876
100
AcDbArc
 50
180.0
 51
217.0
  0
ARC
  5
1CE
330
18C
100
AcDbEntity
  8
0
  6
Continuous
 62
     7
370
    25
100
AcDbCircle
 10
15.3205106459
 20
-26.5298285665
 30
0.0
 40
0.1999759154406418
100
AcDbArc
 50
271.5590299486
 51
28.1544922317
  0
ARC
  5
1CF
330
18C
100
AcDbEntity
  8
0
  6
Continuous
 62
     7
370
    25
100
AcDbCircle
 10
-3.3
 20
-0.2
 30
0.0
 40
0.200000000000002
100
AcDbArc
 50
90.0
 51
180.0
  0
ARC
  5
1D0
330
18C
100
AcDbEntity
  8
0
  6
Continuous
 62
     7
370
    25
100
AcDbCircle
 10
3.3360392195
 20
-0.2
 30
0.0
 40
0.1999999999999991
100
AcDbArc
 50
11.309932474
 51
90.0
  0
VIEWPORT
  5
428
330
18C
100
AcDbEntity
  8
0
100
AcDbViewport
 10
0.0
 20
0.0
 30
0.0
 40
205.6
 41
156.0
 68
     1
 69
     1
 12
0.0199765585
 22
-13.4857751564
 13
0.0
 23
0.0
 14
10.0
 24
10.0
 15
10.0
 25
10.0
 16
0.0
 26
0.0
 36
1.0
 17
0.0
 27
0.0
 37
0.0
 42
50.0
 43
0.0
 44
0.0
 45
386.8745690718
 50
0.0
 51
0.0
 72
   100
 90
   557152
  1

281
     0
 71
     1
 74
     0
110
0.0
120
0.0
130
0.0
111
1.0
121
0.0
131
0.0
112
0.0
122
1.0
132
0.0
 79
     0
146
0.0
  0
ENDBLK
  5
18F
330
18C
100
AcDbEntity
  8
0
100
AcDbBlockEnd
  0
BLOCK
  5
1D3
330
1D1
100
AcDbEntity
  8
0
100
AcDbBlockBegin
  2
*Paper_Space3
 70
     0
 10
0.0
 20
0.0
 30
0.0
  3
*Paper_Space3
  1

  0
LWPOLYLINE
  5
1DB
330
1D1
100
AcDbEntity
  8
0
  6
Continuous
 62
     7
370
    25
100
AcDbPolyline
 90
        9
 70
   128
 43
0.0
 10
-216.7047827846
 20
15.3259513602
 10
-216.7117236406
 20
15.3766847993
 10
-216.7140319131
 20
15.4239814893
 10
-216.7115512367
 20
15.464637491
 10
-216.7044496556
 20
15.4958987139
 10
-216.6932082402
 20
15.5156474824
 10
-216.6785884985
 20
15.522545989
 10
-216.6615807909
 20
15.51612692
 10
-216.6433372415
 20
15.4968251115
  0
SPLINE
  5
1EF
330
1D1
100
AcDbEntity
  8
0
  6
Continuous
 62
     7
370
    25
100
AcDbSpline
210
0.0
220
0.0
230
1.0
 70
     8
 71
     3
 72
     8
 73
     4
 74
     0
 42
0.000000001
 43
0.00000001
 40
0.0
 40
0.0
 40
0.0
 40
0.0
 40
0.0000453377850437
 40
0.0000453377850437
 40
0.0000453377850437
 40
0.0000453377850437
 10
-249.8413256270231
 20
5.522567827752872
 30
0.0
 10
-249.853566785714
 20
5.520829741249969
 30
0.0
 10
-249.8657194495013
 20
5.51748998452468
 30
0.0
 10
-249.8774024665147
 20
5.5126943322536
 30
0.0
  0
LWPOLYLINE
  5
1FA
330
1D1
100
AcDbEntity
  8
0
  6
Continuous
 62
     7
370
    25
100
AcDbPolyline
 90
        9
 70
   128
 43
0.0
 10
-249.8648486684
 20
-3.3
 10
-249.8626232974
 20
-3.3390180644
 10
-249.8560327039
 20
-3.3765366865
 10
-249.8453301608
 20
-3.4111140466
 10
-249.8309269608
 20
-3.4414213562
 10
-249.8133766109
 20
-3.4662939225
 10
-249.7933535611
 20
-3.4847759065
 10
-249.771627286
 20
-3.4961570561
 10
-249.7490327142
 20
-3.5
  0
LWPOLYLINE
  5
1FC
330
1D1
100
AcDbEntity
  8
0
  6
Continuous
 62
     7
370
    25
100
AcDbPolyline
 90
        9
 70
   128
 43
0.0
 10
-249.8774024665
 20
-3.3
 10
-249.8751766999
 20
-3.3390180644
 10
-249.8685849351
 20
-3.3765366865
 10
-249.8578804899
 20
-3.4111140466
 10
-249.8434747301
 20
-3.4414213562
 10
-249.825921261
 20
-3.4662939225
 10
-249.8058946526
 20
-3.4847759065
 10
-249.7841645161
 20
-3.4961570561
 10
-249.7615659287
 20
-3.5
  0
LINE
  5
204
330
1D1
100
AcDbEntity
  8
0
  6
Continuous
 62
     7
370
    25
100
AcDbLine
 10
239.5438851106
 20
5.576312658
 30
0.0
 11
-214.9891615728
 21
15.6651628606
 31
0.0
  0
LINE
  5
205
330
1D1
100
AcDbEntity
  8
0
  6
Continuous
 62
     7
370
    25
100
AcDbLine
 10
-249.9615659287
 20
5.3605838582
 30
0.0
 11
-249.9615659287
 21
-3.3
 31
0.0
  0
LINE
  5
206
330
1D1
100
AcDbEntity
  8
0
  6
Continuous
 62
     7
370
    25
100
AcDbLine
 10
249.9216128117
 20
-3.3
 30
0.0
 11
249.9216128117
 21
5.3377535057
 31
0.0
  0
LINE
  5
207
330
1D1
100
AcDbEntity
  8
0
  6
Continuous
 62
     7
370
    25
100
AcDbLine
 10
-214.9863061736
 20
15.465212109
 30
0.0
 11
-214.9863061736
 21
9.3862908572
 31
0.0
  0
LINE
  5
208
330
1D1
100
AcDbEntity
  8
0
  6
Continuous
 62
     7
370
    25
100
AcDbLine
 10
-216.7047827846
 20
9.2137614371
 30
0.0
 11
-216.7047827846
 21
15.3259513602
 31
0.0
  0
LINE
  5
209
330
1D1
100
AcDbEntity
  8
0
  6
Continuous
 62
     7
370
    25
100
AcDbLine
 10
-214.9863061736
 20
9.3862908572
 30
0.0
 11
246.3567812021
 21
-3.3
 31
0.0
  0
LINE
  5
20A
330
1D1
100
AcDbEntity
  8
0
  6
Continuous
 62
     7
370
    25
100
AcDbLine
 10
246.3494876807
 20
-3.459727102
 30
0.0
 11
-214.9935996949
 21
9.2265637552
 31
0.0
  0
LINE
  5
20B
330
1D1
100
AcDbEntity
  8
0
  6
Continuous
 62
     7
370
    25
100
AcDbLine
 10
226.126554352
 20
5.6742373828
 30
0.0
 11
-214.9863061736
 21
15.465212109
 31
0.0
  0
LINE
  5
20C
330
1D1
100
AcDbEntity
  8
0
  6
Continuous
 62
     7
370
    25
100
AcDbLine
 10
249.728906333
 20
5.5019785435
 30
0.0
 11
226.126554352
 21
5.6742373828
 31
0.0
  0
LINE
  5
20D
330
1D1
100
AcDbEntity
  8
0
  6
Continuous
 62
     7
370
    25
100
AcDbLine
 10
249.728906333
 20
-3.3
 30
0.0
 11
249.728906333
 21
5.5019785435
 31
0.0
  0
LINE
  5
20E
330
1D1
100
AcDbEntity
  8
0
  6
Continuous
 62
     7
370
    25
100
AcDbLine
 10
246.3567812021
 20
-3.3
 30
0.0
 11
249.9216128117
 21
-3.3
 31
0.0
  0
LINE
  5
20F
330
1D1
100
AcDbEntity
  8
0
  6
Continuous
 62
     7
370
    25
100
AcDbLine
 10
-249.7490327142
 20
-3.459727102
 30
0.0
 11
246.3494876807
 21
-3.459727102
 31
0.0
  0
LINE
  5
210
330
1D1
100
AcDbEntity
  8
0
  6
Continuous
 62
     7
370
    25
100
AcDbLine
 10
-248.8372446238
 20
5.6636206493
 30
0.0
 11
-249.841325627
 21
5.5225678278
 31
0.0
  0
LINE
  5
211
330
1D1
100
AcDbEntity
  8
0
  6
Continuous
 62
     7
370
    25
100
AcDbLine
 10
-249.9615659287
 20
-3.3
 30
0.0
 11
-249.8648486684
 21
-3.3
 31
0.0
  0
LINE
  5
212
330
1D1
100
AcDbEntity
  8
0
  6
Continuous
 62
     7
370
    25
100
AcDbLine
 10
-249.8774024665
 20
5.5126943323
 30
0.0
 11
-249.8774024665
 21
-3.3
 31
0.0
  0
LINE
  5
213
330
1D1
100
AcDbEntity
  8
0
  6
Continuous
 62
     7
370
    25
100
AcDbLine
 10
246.3494876807
 20
-3.459727102
 30
0.0
 11
246.3494876807
 21
-3.5
 31
0.0
  0
LINE
  5
214
330
1D1
100
AcDbEntity
  8
0
  6
Continuous
 62
     7
370
    25
100
AcDbLine
 10
-249.7490327142
 20
-3.459727102
 30
0.0
 11
-249.7490327142
 21
-3.5
 31
0.0
  0
LINE
  5
215
330
1D1
100
AcDbEntity
  8
0
  6
Continuous
 62
     7
370
    25
100
AcDbLine
 10
249.7216128117
 20
-3.5
 30
0.0
 11
-249.7615659287
 21
-3.5
 31
0.0
  0
ARC
  5
216
330
1D1
100
AcDbEntity
  8
0
  6
Continuous
 62
     7
370
    25
100
AcDbCircle
 10
-249.7615659287
 20
-3.3
 30
0.0
 40
0.1999999999999647
100
AcDbArc
 50
180.0
 51
270.0
  0
ARC
  5
217
330
1D1
100
AcDbEntity
  8
0
  6
Continuous
 62
     7
370
    25
100
AcDbCircle
 10
249.7216128117
 20
-3.3
 30
0.0
 40
0.2000000000000202
100
AcDbArc
 50
270.0
 51
360.0
  0
ARC
  5
218
330
1D1
100
AcDbEntity
  8
0
  6
Continuous
 62
     7
370
    25
100
AcDbCircle
 10
-215.17413718
 20
7.1104206233
 30
0.0
 40
8.356902611400617
100
AcDbArc
 50
88.7121029464
 51
100.5538426346
  0
ARC
  5
219
330
1D1
100
AcDbEntity
  8
0
  6
Continuous
 62
     7
370
    25
100
AcDbCircle
 10
-215.1736853787
 20
7.9281016657
 30
0.0
 40
7.710087625741041
100
AcDbArc
 50
88.661612092
 51
100.9886279335
  0
ARC
  5
21A
330
1D1
100
AcDbEntity
  8
0
  6
Continuous
 62
     7
370
    25
100
AcDbCircle
 10
-214.9459006827
 20
15.6436825997
 30
0.0
 40
0.0483001679375776
100
AcDbArc
 50
153.5942957658
 51
189.0491597518
  0
ARC
  5
21B
330
1D1
100
AcDbEntity
  8
0
  6
Continuous
 62
     7
370
    25
100
AcDbCircle
 10
-215.1721020661
 20
2.95970143
 30
0.0
 40
6.269403998795795
100
AcDbArc
 50
88.3684549884
 51
103.5721161068
  0
ARC
  5
21C
330
1D1
100
AcDbEntity
  8
0
  6
Continuous
 62
     7
370
    25
100
AcDbCircle
 10
-216.2185142049
 20
9.3091421572
 30
0.0
 40
0.4955346742234711
100
AcDbArc
 50
191.0975739412
 51
210.9849739836
  0
ARC
  5
21D
330
1D1
100
AcDbEntity
  8
0
  6
Continuous
 62
     7
370
    25
100
AcDbCircle
 10
-215.1726171999
 20
2.5973444283
 30
0.0
 40
6.791502441586779
100
AcDbArc
 50
88.4280098619
 51
103.0381856278
  0
ARC
  5
21E
330
1D1
100
AcDbEntity
  8
0
  6
Continuous
 62
     7
370
    25
100
AcDbCircle
 10
-218.6399653532
 20
9.4730956004
 30
0.0
 40
3.65469020091024
100
AcDbArc
 50
356.1321020596
 51
358.639005525
  0
ARC
  5
21F
330
1D1
100
AcDbEntity
  8
0
  6
Continuous
 62
     7
370
    25
100
AcDbCircle
 10
242.7031220229
 20
-3.2131952569
 30
0.0
 40
3.654690200506972
100
AcDbArc
 50
356.1321020595
 51
358.6390055253
  0
ARC
  5
220
330
1D1
100
AcDbEntity
  8
0
  6
Continuous
 62
     7
370
    25
100
AcDbCircle
 10
-183.8604564306
 20
-127.7226436017
 30
0.0
 40
140.65054888516
100
AcDbArc
 50
103.4784936376
 51
117.9341107973
  0
ARC
  5
221
330
1D1
100
AcDbEntity
  8
0
  6
Continuous
 62
     7
370
    25
100
AcDbCircle
 10
-249.5503976209
 20
-3.1938476519
 30
0.0
 40
0.3318851944837023
100
AcDbArc
 50
198.6536476287
 51
233.2370677234
  0
ARC
  5
222
330
1D1
100
AcDbEntity
  8
0
  6
Continuous
 62
     7
370
    25
100
AcDbCircle
 10
-183.8880317318
 20
-127.9390629148
 30
0.0
 40
141.02424038927
100
AcDbArc
 50
103.4562557373
 51
117.8941940635
  0
ARC
  5
223
330
1D1
100
AcDbEntity
  8
0
  6
Continuous
 62
     7
370
    25
100
AcDbCircle
 10
-185.8061438059
 20
-145.6887410286
 30
0.0
 40
163.9526061269116
100
AcDbArc
 50
100.862971741
 51
112.609418656
  0
ARC
  5
224
330
1D1
100
AcDbEntity
  8
0
  6
Continuous
 62
     7
370
    25
100
AcDbCircle
 10
-185.9040982738
 20
-144.5993106405
 30
0.0
 40
163.0204695584117
100
AcDbArc
 50
100.8687948762
 51
112.8719633255
  0
ARC
  5
225
330
1D1
100
AcDbEntity
  8
0
  6
Continuous
 62
     7
370
    25
100
AcDbCircle
 10
244.9802312388
 20
-3.3499335057
 30
0.0
 40
1.3774553192188
100
AcDbArc
 50
353.7455126849
 51
2.0774583871
  0
ARC
  5
226
330
1D1
100
AcDbEntity
  8
0
  6
Continuous
 62
     7
370
    25
100
AcDbCircle
 10
248.3523563697
 20
-3.3499335057
 30
0.0
 40
1.377455319211858
100
AcDbArc
 50
353.7455126848
 51
2.0774583871
  0
ARC
  5
227
330
1D1
100
AcDbEntity
  8
0
  6
Continuous
 62
     7
370
    25
100
AcDbCircle
 10
-249.8030269978
 20
5.3722027624
 30
0.0
 40
0.1589641203010345
100
AcDbArc
 50
117.896499778
 51
184.1915644037
  0
ARC
  5
228
330
1D1
100
AcDbEntity
  8
0
  6
Continuous
 62
     7
370
    25
100
AcDbCircle
 10
249.7716317517
 20
5.350919776
 30
0.0
 40
0.1505578593729008
100
AcDbArc
 50
354.9830812028
 51
79.2268977151
  0
ARC
  5
229
330
1D1
100
AcDbEntity
  8
0
  6
Continuous
 62
     7
370
    25
100
AcDbCircle
 10
249.7232699245
 20
4.5777257285
 30
0.0
 40
0.9242700012002592
100
AcDbArc
 50
85.252053747
 51
89.6505951511
  0
ARC
  5
22A
330
1D1
100
AcDbEntity
  8
0
  6
Continuous
 62
     8
370
    25
100
AcDbCircle
 10
-216.344783524
 20
15.5458081201
 30
0.0
 40
1.360866058339766
100
AcDbArc
 50
356.604724608
 51
5.0315903718
  0
VIEWPORT
  5
42A
330
1D1
100
AcDbEntity
  8
0
100
AcDbViewport
 10
0.0
 20
0.0
 30
0.0
 40
205.6
 41
156.0
 68
     1
 69
     1
 12
0.0199765585
 22
-13.4857751564
 13
0.0
 23
0.0
 14
10.0
 24
10.0
 15
10.0
 25
10.0
 16
0.0
 26
0.0
 36
1.0
 17
0.0
 27
0.0
 37
0.0
 42
50.0
 43
0.0
 44
0.0
 45
386.8745690718
 50
0.0
 51
0.0
 72
   100
 90
   557152
  1

281
     0
 71
     1
 74
     0
110
0.0
120
0.0
130
0.0
111
1.0
121
0.0
131
0.0
112
0.0
122
1.0
132
0.0
 79
     0
146
0.0
  0
ENDBLK
  5
1D4
330
1D1
100
AcDbEntity
  8
0
100
AcDbBlockEnd
  0
BLOCK
  5
22D
330
22B
100
AcDbEntity
  8
0
100
AcDbBlockBegin
  2
*Paper_Space4
 70
     0
 10
0.0
 20
0.0
 30
0.0
  3
*Paper_Space4
  1

  0
LWPOLYLINE
  5
23C
330
22B
100
AcDbEntity
  8
0
  6
Continuous
 62
     7
370
    25
100
AcDbPolyline
 90
       10
 70
   128
 43
0.0
 10
166.9956799477
 20
-109.0602067391
 10
167.4115314166
 20
-109.3077048237
 10
167.5735591998
 20
-109.4233412672
 10
167.477476584
 20
-109.4040567158
 10
167.1258255938
 20
-109.2503613743
 10
166.5279097386
 20
-108.9663215075
 10
165.6995478725
 20
-108.5594518605
 10
164.6626556803
 20
-108.0405168435
 10
163.4446658622
 20
-107.4232457417
 10
162.9648141578
 20
-107.1784357889
  0
SPLINE
  5
23E
330
22B
100
AcDbEntity
  8
0
  6
Continuous
 62
     7
370
    25
100
AcDbSpline
210
0.0
220
0.0
230
1.0
 70
     8
 71
     3
 72
    18
 73
    14
 74
     0
 42
0.000000001
 43
0.00000001
 40
0.0
 40
0.0
 40
0.0
 40
0.0
 40
0.5000000000000288
 40
0.5000000000000288
 40
0.7500000000000434
 40
0.7500000000000434
 40
0.8750000000000504
 40
0.8750000000000504
 40
0.9375000000000426
 40
0.9375000000000426
 40
0.9687500000000213
 40
0.9687500000000213
 40
1.0
 40
1.0
 40
1.0
 40
1.0
 10
-179.9592876524752
 20
90.43103678888873
 30
0.0
 10
-180.058199661172
 20
90.59875649637647
 30
0.0
 10
-180.1502408030359
 20
90.77285342831634
 30
0.0
 10
-180.2719375428022
 20
91.0436222511044
 30
0.0
 10
-180.310272914563
 20
91.13571334592044
 30
0.0
 10
-180.355893759601
 20
91.2778710253364
 30
0.0
 10
-180.3700219736566
 20
91.32651455088933
 30
0.0
 10
-180.3777795296826
 20
91.39860278351503
 30
0.0
 10
-180.3785721399299
 20
91.42519561844718
 30
0.0
 10
-180.3621474539812
 20
91.44786752438509
 30
0.0
 10
-180.3534767668749
 20
91.45073973245901
 30
0.0
 10
-180.3357474911786
 20
91.44873971319709
 30
0.0
 10
-180.3266509025957
 20
91.44470699372575
 30
0.0
 10
-180.317797476523
 20
91.43959601964416
 30
0.0
  0
LWPOLYLINE
  5
250
330
22B
100
AcDbEntity
  8
0
  6
Continuous
 62
     7
370
    25
100
AcDbPolyline
 90
        7
 70
   128
 43
0.0
 10
-163.0499940992
 20
59.4127452137
 10
-163.0539518206
 20
59.4149352479
 10
-163.0769591321
 20
59.4367722872
 10
-163.0917546215
 20
59.4693338903
 10
-163.0973083878
 20
59.5103534734
 10
-163.0932338384
 20
59.5569756999
 10
-163.079814599
 20
59.6059552385
  0
LWPOLYLINE
  5
254
330
22B
100
AcDbEntity
  8
0
  6
Continuous
 62
     7
370
    25
100
AcDbPolyline
 90
        9
 70
   128
 43
0.0
 10
-164.0705055575
 20
60.3777399541
 10
-164.1112874426
 20
60.367505814
 10
-164.146363448
 20
60.3667935096
 10
-164.1733574794
 20
60.3756512933
 10
-164.190440926
 20
60.3934791273
 10
-164.196456533
 20
60.419069331
 10
-164.1909967953
 20
60.4506883907
 10
-164.1744315627
 20
60.4861943902
 10
-164.1478829856
 20
60.5231821071
  0
SPLINE
  5
258
330
22B
100
AcDbEntity
  8
0
  6
Continuous
 62
     7
370
    25
100
AcDbSpline
210
0.0
220
0.0
230
1.0
 70
     8
 71
     3
 72
     8
 73
     4
 74
     0
 42
0.000000001
 43
0.00000001
 40
0.0
 40
0.0
 40
0.0
 40
0.0
 40
0.0000453377850437
 40
0.0000453377850437
 40
0.0000453377850437
 40
0.0000453377850437
 10
-180.5695407320708
 20
91.4743619880495
 30
0.0
 10
-180.5769675256383
 20
91.48716446545724
 30
0.0
 10
-180.5831991919838
 20
91.50053615851736
 30
0.0
 10
-180.5880692942976
 20
91.51404056733041
 30
0.0
  0
LWPOLYLINE
  5
259
330
22B
100
AcDbEntity
  8
0
  6
Continuous
 62
     8
370
    25
100
AcDbPolyline
 90
        6
 70
   128
 43
0.0
 10
179.1069586942
 20
-108.5506320713
 10
179.1076840415
 20
-108.559199569
 10
179.1028537031
 20
-108.5744449669
 10
179.0907388531
 20
-108.5906950347
 10
179.0718050587
 20
-108.6073252915
 10
179.0467799347
 20
-108.6236966459
  0
LWPOLYLINE
  5
25A
330
22B
100
AcDbEntity
  8
0
  6
Continuous
 62
     8
370
    25
100
AcDbPolyline
 90
        6
 70
   128
 43
0.0
 10
176.7285986627
 20
-99.3306558217
 10
176.7293240101
 20
-99.3392233194
 10
176.7244936716
 20
-99.3544687173
 10
176.7123788217
 20
-99.3707187851
 10
176.6934450272
 20
-99.3873490419
 10
176.6684199033
 20
-99.4037203963
  0
LINE
  5
261
330
22B
100
AcDbEntity
  8
0
  6
Continuous
 62
     7
370
    25
100
AcDbLine
 10
-163.0499940992
 20
59.4127452137
 30
0.0
 11
162.9648141578
 21
-107.1784357889
 31
0.0
  0
LINE
  5
262
330
22B
100
AcDbEntity
  8
0
  6
Continuous
 62
     7
370
    25
100
AcDbLine
 10
179.1069586942
 20
-108.5506320713
 30
0.0
 11
176.7285986627
 21
-99.3306558217
 31
0.0
  0
LINE
  5
263
330
22B
100
AcDbEntity
  8
0
  6
Continuous
 62
     7
370
    25
100
AcDbLine
 10
172.8081080949
 20
-112.355973288
 30
0.0
 11
179.0132900791
 21
-108.7737979773
 31
0.0
  0
LINE
  5
264
330
22B
100
AcDbEntity
  8
0
  6
Continuous
 62
     7
370
    25
100
AcDbLine
 10
176.6349300477
 20
-99.2074021828
 30
0.0
 11
-171.7680415453
 21
101.921352172
 31
0.0
  0
LINE
  5
265
330
22B
100
AcDbEntity
  8
0
  6
Continuous
 62
     7
370
    25
100
AcDbLine
 10
-176.7382349132
 20
99.1308401559
 30
0.0
 11
-180.5591825015
 21
91.7100740984
 31
0.0
  0
LINE
  5
266
330
22B
100
AcDbEntity
  8
0
  6
Continuous
 62
     7
370
    25
100
AcDbLine
 10
-171.9680252919
 20
101.921352172
 30
0.0
 11
-176.6604136242
 21
99.2124940474
 31
0.0
  0
LINE
  5
267
330
22B
100
AcDbEntity
  8
0
  6
Continuous
 62
     7
370
    25
100
AcDbLine
 10
172.7468583816
 20
-112.3745303639
 30
0.0
 11
171.7038747931
 21
-102.137498116
 31
0.0
  0
LINE
  5
268
330
22B
100
AcDbEntity
  8
0
  6
Continuous
 62
     7
370
    25
100
AcDbLine
 10
172.6945167883
 20
-112.3597683269
 30
0.0
 11
159.676782552
 21
-105.4982757026
 31
0.0
  0
LINE
  5
269
330
22B
100
AcDbEntity
  8
0
  6
Continuous
 62
     7
370
    25
100
AcDbLine
 10
-180.3177974765
 20
91.4395960196
 30
0.0
 11
166.9956799477
 21
-109.0602067391
 31
0.0
  0
LINE
  5
26A
330
22B
100
AcDbEntity
  8
0
  6
Continuous
 62
     7
370
    25
100
AcDbLine
 10
-179.9592876525
 20
90.4310367889
 30
0.0
 11
-180.5695407321
 21
91.474361988
 31
0.0
  0
LINE
  5
26B
330
22B
100
AcDbEntity
  8
0
  6
Continuous
 62
     7
370
    25
100
AcDbLine
 10
-176.6990968
 20
98.9912562388
 30
0.0
 11
-180.5695407321
 21
91.474361988
 31
0.0
  0
LINE
  5
26C
330
22B
100
AcDbEntity
  8
0
  6
Continuous
 62
     7
370
    25
100
AcDbLine
 10
171.7038747931
 20
-102.137498116
 30
0.0
 11
-176.6990968
 21
98.9912562388
 31
0.0
  0
LINE
  5
26D
330
22B
100
AcDbEntity
  8
0
  6
Continuous
 62
     7
370
    25
100
AcDbLine
 10
171.976031571
 20
-102.1125785209
 30
0.0
 11
172.9953287273
 21
-112.1171250682
 31
0.0
  0
LINE
  5
26E
330
22B
100
AcDbEntity
  8
0
  6
Continuous
 62
     7
370
    25
100
AcDbLine
 10
176.6684199033
 20
-99.4037203963
 30
0.0
 11
171.976031571
 21
-102.1125785209
 31
0.0
  0
LINE
  5
26F
330
22B
100
AcDbEntity
  8
0
  6
Continuous
 62
     7
370
    25
100
AcDbLine
 10
179.0467799347
 20
-108.6236966459
 30
0.0
 11
176.6684199033
 21
-99.4037203963
 31
0.0
  0
LINE
  5
270
330
22B
100
AcDbEntity
  8
0
  6
Continuous
 62
     7
370
    25
100
AcDbLine
 10
172.9953287273
 20
-112.1171250682
 30
0.0
 11
179.0467799347
 21
-108.6236966459
 31
0.0
  0
LINE
  5
271
330
22B
100
AcDbEntity
  8
0
  6
Continuous
 62
     7
370
    25
100
AcDbLine
 10
-176.5604217509
 20
99.2025924373
 30
0.0
 11
171.8425498421
 21
-101.9261619174
 31
0.0
  0
LINE
  5
272
330
22B
100
AcDbEntity
  8
0
  6
Continuous
 62
     7
370
    25
100
AcDbLine
 10
171.8425498421
 20
-101.9261619174
 30
0.0
 11
176.5349381744
 21
-99.2173037929
 31
0.0
  0
LINE
  5
273
330
22B
100
AcDbEntity
  8
0
  6
Continuous
 62
     7
370
    25
100
AcDbLine
 10
-171.8680334186
 20
101.9114505619
 30
0.0
 11
-176.5604217509
 21
99.2025924373
 31
0.0
  0
LINE
  5
274
330
22B
100
AcDbEntity
  8
0
  6
Continuous
 62
     7
370
    25
100
AcDbLine
 10
176.5349381744
 20
-99.2173037929
 30
0.0
 11
-171.8680334186
 21
101.9114505619
 31
0.0
  0
LINE
  5
275
330
22B
100
AcDbEntity
  8
0
  6
Continuous
 62
     7
370
    25
100
AcDbLine
 10
-163.079814599
 20
59.6059552385
 30
0.0
 11
166.9956799477
 21
-109.0602067391
 31
0.0
  0
ARC
  5
276
330
22B
100
AcDbEntity
  8
0
  6
Continuous
 62
     7
370
    25
100
AcDbCircle
 10
176.5349381744
 20
-99.3806119553
 30
0.0
 40
0.2000000000001176
100
AcDbArc
 50
14.4645336217
 51
60.0026882663
  0
ARC
  5
277
330
22B
100
AcDbEntity
  8
0
  6
Continuous
 62
     7
370
    25
100
AcDbCircle
 10
178.9132982059
 20
-108.6005882048
 30
0.0
 40
0.2000000000000531
100
AcDbArc
 50
299.9973117336
 51
360.0
  0
ARC
  5
278
330
22B
100
AcDbEntity
  8
0
  6
Continuous
 62
     7
370
    25
100
AcDbCircle
 10
-176.5604217509
 20
99.0392842749
 30
0.0
 40
0.1999999999994893
100
AcDbArc
 50
119.9973117336
 51
152.7560908911
  0
ARC
  5
279
330
22B
100
AcDbEntity
  8
0
  6
Continuous
 62
     7
370
    25
100
AcDbCircle
 10
-171.8680334186
 20
101.7481423995
 30
0.0
 40
0.1999999999999442
100
AcDbArc
 50
60.0026882663
 51
119.9973117337
  0
ARC
  5
27A
330
22B
100
AcDbEntity
  8
0
  6
Continuous
 62
     7
370
    25
100
AcDbCircle
 10
172.752913291
 20
-112.2528870112
 30
0.0
 40
0.1217939538110808
100
AcDbArc
 50
241.3492311781
 51
267.1504019305
  0
ARC
  5
27B
330
22B
100
AcDbEntity
  8
0
  6
Continuous
 62
     7
370
    25
100
AcDbCircle
 10
171.7769170406
 20
-101.4365956258
 30
0.0
 40
0.7046981414753261
100
AcDbArc
 50
264.05058383
 51
286.4126312985
  0
ARC
  5
27C
330
22B
100
AcDbEntity
  8
0
  6
Continuous
 62
     7
370
    25
100
AcDbCircle
 10
172.6241518389
 20
-112.0074577428
 30
0.0
 40
0.3870390222426565
100
AcDbArc
 50
288.4839625289
 51
343.5397826678
  0
ARC
  5
27D
330
22B
100
AcDbEntity
  8
0
  6
Continuous
 62
     7
370
    25
100
AcDbCircle
 10
172.0127175469
 20
-102.188989082
 30
0.0
 40
0.3131056788506858
100
AcDbArc
 50
122.9210778513
 51
170.5345779066
  0
ARC
  5
27E
330
22B
100
AcDbEntity
  8
0
  6
Continuous
 62
     7
370
    25
100
AcDbCircle
 10
171.6725936629
 20
-102.1888547502
 30
0.0
 40
0.312877975010212
100
AcDbArc
 50
14.1102825926
 51
57.0980681614
  0
ARC
  5
27F
330
22B
100
AcDbEntity
  8
0
  6
Continuous
 62
     7
370
    25
100
AcDbCircle
 10
-176.3902540462
 20
98.9397652728
 30
0.0
 40
0.3131056788507452
100
AcDbArc
 50
122.9210778513
 51
170.5345779066
  0
ARC
  5
280
330
22B
100
AcDbEntity
  8
0
  6
Continuous
 62
     7
370
    25
100
AcDbCircle
 10
176.3649819952
 20
-99.4799966256
 30
0.0
 40
0.3128779750102361
100
AcDbArc
 50
14.1102825926
 51
57.0980681614
  0
ARC
  5
281
330
22B
100
AcDbEntity
  8
0
  6
Continuous
 62
     7
370
    25
100
AcDbCircle
 10
-161.6212501532
 20
62.3848578907
 30
0.0
 40
3.138424794826391
100
AcDbArc
 50
216.3835629863
 51
242.3063372942
  0
ARC
  5
282
330
22B
100
AcDbEntity
  8
0
  6
Continuous
 62
     7
370
    25
100
AcDbCircle
 10
-73.9656162287
 20
127.3771497061
 30
0.0
 40
112.2599404112402
100
AcDbArc
 50
198.6706678328
 51
216.5503001164
  0
ARC
  5
283
330
22B
100
AcDbEntity
  8
0
  6
Continuous
 62
     7
370
    25
100
AcDbCircle
 10
-76.7356138283
 20
125.5311610098
 30
0.0
 40
108.9619627153317
100
AcDbArc
 50
202.5749695556
 51
216.5861464049
  0
ARC
  5
284
330
22B
100
AcDbEntity
  8
0
  6
Continuous
 62
     7
370
    25
100
AcDbCircle
 10
-161.4045620516
 20
62.3705849364
 30
0.0
 40
3.328465997985095
100
AcDbArc
 50
216.7788342117
 51
242.2599747481
  0
ARC
  5
285
330
22B
100
AcDbEntity
  8
0
  6
Continuous
 62
     7
370
    25
100
AcDbCircle
 10
-180.3298301374
 20
91.5761324704
 30
0.0
 40
0.2655990711632219
100
AcDbArc
 50
149.7151000965
 51
193.5197526441
  0
ARC
  5
286
330
22B
100
AcDbEntity
  8
0
  6
Continuous
 62
     8
370
    25
100
AcDbCircle
 10
178.9247735446
 20
-108.6752619025
 30
0.0
 40
0.1324557847902491
100
AcDbArc
 50
311.9338612394
 51
22.9110535004
  0
ARC
  5
287
330
22B
100
AcDbEntity
  8
0
  6
Continuous
 62
     8
370
    25
100
AcDbCircle
 10
176.5935221854
 20
-99.2990800587
 30
0.0
 40
0.1005954471804209
100
AcDbArc
 50
65.6928809539
 51
125.6175774752
  0
ARC
  5
288
330
22B
100
AcDbEntity
  8
0
  6
Continuous
 62
     8
370
    25
100
AcDbCircle
 10
-171.8094494076
 20
101.8296742961
 30
0.0
 40
0.1005954471804931
100
AcDbArc
 50
65.6928809539
 51
125.6175774752
  0
ARC
  5
289
330
22B
100
AcDbEntity
  8
0
  6
Continuous
 62
     8
370
    25
100
AcDbCircle
 10
-176.6188850099
 20
99.0890258767
 30
0.0
 40
0.1264627746118512
100
AcDbArc
 50
160.6920733299
 51
230.6339930687
  0
ARC
  5
28A
330
22B
100
AcDbEntity
  8
0
  6
Continuous
 62
     8
370
    25
100
AcDbCircle
 10
-176.6187587182
 20
99.1233109534
 30
0.0
 40
0.0984314759345124
100
AcDbArc
 50
53.6535909776
 51
115.0359505933
  0
ARC
  5
28B
330
22B
100
AcDbEntity
  8
0
  6
Continuous
 62
     8
370
    25
100
AcDbCircle
 10
-171.9263703859
 20
101.8321690779
 30
0.0
 40
0.0984314759344738
100
AcDbArc
 50
53.6535909776
 51
115.0359505933
  0
VIEWPORT
  5
42C
330
22B
100
AcDbEntity
  8
0
100
AcDbViewport
 10
0.0
 20
0.0
 30
0.0
 40
205.6
 41
156.0
 68
     1
 69
     1
 12
0.0199765585
 22
-13.4857751564
 13
0.0
 23
0.0
 14
10.0
 24
10.0
 15
10.0
 25
10.0
 16
0.0
 26
0.0
 36
1.0
 17
0.0
 27
0.0
 37
0.0
 42
50.0
 43
0.0
 44
0.0
 45
386.8745690718
 50
0.0
 51
0.0
 72
   100
 90
   557152
  1

281
     0
 71
     1
 74
     0
110
0.0
120
0.0
130
0.0
111
1.0
121
0.0
131
0.0
112
0.0
122
1.0
132
0.0
 79
     0
146
0.0
  0
ENDBLK
  5
22E
330
22B
100
AcDbEntity
  8
0
100
AcDbBlockEnd
  0
BLOCK
  5
28E
330
28C
100
AcDbEntity
  8
0
100
AcDbBlockBegin
  2
*Paper_Space5
 70
     0
 10
0.0
 20
0.0
 30
0.0
  3
*Paper_Space5
  1

  0
LWPOLYLINE
  5
29C
330
28C
100
AcDbEntity
  8
0
  6
Continuous
 62
     7
370
    25
100
AcDbPolyline
 90
       11
 70
   128
 43
0.0
 10
211.1683408133
 20
-69.1656107238
 10
211.6891032772
 20
-69.3145280242
 10
211.8936448546
 20
-69.3920783179
 10
211.7765540592
 20
-69.3962098834
 10
211.340928722
 20
-69.3268134132
 10
210.5982940326
 20
-69.185724906
 10
209.5682976216
 20
-68.9766770918
 10
208.2781897497
 20
-68.7052006767
 10
206.7621023571
 20
-68.3784780188
 10
205.0601460463
 20
-68.0051531072
 10
204.2412283892
 20
-67.823602006
  0
SPLINE
  5
29E
330
28C
100
AcDbEntity
  8
0
  6
Continuous
 62
     7
370
    25
100
AcDbSpline
210
0.0
220
0.0
230
1.0
 70
     8
 71
     3
 72
    18
 73
    14
 74
     0
 42
0.000000001
 43
0.00000001
 40
0.0
 40
0.0
 40
0.0
 40
0.0
 40
0.5000000000000288
 40
0.5000000000000288
 40
0.7500000000000434
 40
0.7500000000000434
 40
0.8750000000000504
 40
0.8750000000000504
 40
0.9375000000000426
 40
0.9375000000000426
 40
0.9687500000000213
 40
0.9687500000000213
 40
1.0
 40
1.0
 40
1.0
 40
1.0
 10
-222.7193541352534
 20
47.95923235907031
 30
0.0
 10
-222.8525008630025
 20
48.10533945195618
 30
0.0
 10
-222.9779357668418
 20
48.25962902646691
 30
0.0
 10
-223.1472455976304
 20
48.5048927199817
 30
0.0
 10
-223.2011589836381
 20
48.58906410700521
 30
0.0
 10
-223.268095037772
 20
48.72234602043365
 30
0.0
 10
-223.2892181522525
 20
48.7683187077782
 30
0.0
 10
-223.3046857192182
 20
48.83970552018791
 30
0.0
 10
-223.3079055048295
 20
48.86655086368707
 30
0.0
 10
-223.2901038113366
 20
48.89366342901604
 30
0.0
 10
-223.279930587588
 20
48.89872652091008
 30
0.0
 10
-223.258457734216
 20
48.90107354517886
 30
0.0
 10
-223.2471840269481
 20
48.89922052905343
 30
0.0
 10
-223.2361105502599
 20
48.89621099536548
 30
0.0
  0
LWPOLYLINE
  5
2B4
330
28C
100
AcDbEntity
  8
0
  6
Continuous
 62
     7
370
    25
100
AcDbPolyline
 90
        9
 70
   128
 43
0.0
 10
-198.8101877796
 20
22.1954792105
 10
-198.8400034606
 20
22.1820604185
 10
-198.8641180857
 20
22.1796016022
 10
-198.880898099
 20
22.188269325
 10
-198.8892068006
 20
22.207476424
 10
-198.8884813483
 20
22.2359217855
 10
-198.8787708851
 20
22.2716784836
 10
-198.8607332103
 20
22.3123243132
 10
-198.8355902197
 20
22.355105873
  0
SPLINE
  5
2B8
330
28C
100
AcDbEntity
  8
0
  6
Continuous
 62
     7
370
    25
100
AcDbSpline
210
0.0
220
0.0
230
1.0
 70
     8
 71
     3
 72
     8
 73
     4
 74
     0
 42
0.000000001
 43
0.00000001
 40
0.0
 40
0.0
 40
0.0
 40
0.0
 40
0.0000453377850437
 40
0.0000453377850437
 40
0.0000453377850437
 40
0.0000453377850437
 10
-223.5415528687145
 20
48.86935935011784
 30
0.0
 10
-223.5515680143346
 20
48.88054257581563
 30
0.0
 10
-223.5607574013509
 20
48.89238322539089
 30
0.0
 10
-223.5688519645116
 20
48.90449085897189
 30
0.0
  0
LWPOLYLINE
  5
2B9
330
28C
100
AcDbEntity
  8
0
  6
Continuous
 62
     8
370
    25
100
AcDbPolyline
 90
        7
 70
   128
 43
0.0
 10
-197.4051932504
 20
21.4923936646
 10
-197.4209989274
 20
21.5006752557
 10
-197.4365328597
 20
21.5225858201
 10
-197.4468632286
 20
21.5559845979
 10
-197.4512709463
 20
21.5985467303
 10
-197.4494491955
 20
21.6473095052
 10
-197.4415247868
 20
21.6988785897
  0
LWPOLYLINE
  5
2BB
330
28C
100
AcDbEntity
  8
0
  6
Continuous
 62
     8
370
    25
100
AcDbPolyline
 90
        5
 70
   128
 43
0.0
 10
222.5884050953
 20
-66.8677337824
 10
222.5890873603
 20
-66.870237619
 10
222.5883783872
 20
-66.884947489
 10
222.5803692095
 20
-66.9013968663
 10
222.5653676155
 20
-66.9189536105
  0
LWPOLYLINE
  5
2BC
330
28C
100
AcDbEntity
  8
0
  6
Continuous
 62
     8
370
    25
100
AcDbPolyline
 90
        5
 70
   128
 43
0.0
 10
219.6136567721
 20
-57.8218610972
 10
219.614339037
 20
-57.8243649337
 10
219.613630064
 20
-57.8390748037
 10
219.6056208863
 20
-57.855524181
 10
219.5906192923
 20
-57.8730809253
  0
LWPOLYLINE
  5
2BF
330
28C
100
AcDbEntity
  8
0
  6
Continuous
 62
     8
370
    25
100
AcDbPolyline
 90
        8
 70
   128
 43
0.0
 10
-219.5320120389
 20
57.4693448623
 10
-219.5605917912
 20
57.4901353415
 10
-219.5849279686
 20
57.5121596551
 10
-219.6041607293
 20
57.5346396437
 10
-219.6176105442
 20
57.5567810479
 10
-219.6248022068
 20
57.5778015711
 10
-219.6254816223
 20
57.5969585194
 10
-219.6217527372
 20
57.6095682235
  0
LINE
  5
2C2
330
28C
100
AcDbEntity
  8
0
  6
Continuous
 62
     7
370
    25
100
AcDbLine
 10
-197.4051932504
 20
21.4923936646
 30
0.0
 11
204.2412283892
 21
-67.823602006
 31
0.0
  0
LINE
  5
2C3
330
28C
100
AcDbEntity
  8
0
  6
Continuous
 62
     7
370
    25
100
AcDbLine
 10
218.4495341899
 20
-71.0639142181
 30
0.0
 11
222.5381101603
 21
-67.0733387298
 31
0.0
  0
LINE
  5
2C4
330
28C
100
AcDbEntity
  8
0
  6
Continuous
 62
     7
370
    25
100
AcDbLine
 10
222.5884050953
 20
-66.8677337824
 30
0.0
 11
219.6136567721
 21
-57.8218610972
 31
0.0
  0
LINE
  5
2C5
330
28C
100
AcDbEntity
  8
0
  6
Continuous
 62
     7
370
    25
100
AcDbLine
 10
219.4761192437
 20
-57.6913406022
 30
0.0
 11
-216.2910236001
 21
60.7408314624
 31
0.0
  0
LINE
  5
2C6
330
28C
100
AcDbEntity
  8
0
  6
Continuous
 62
     7
370
    25
100
AcDbLine
 10
-219.6217527372
 20
57.6095682235
 30
0.0
 11
-223.5606315745
 21
49.1611442337
 31
0.0
  0
LINE
  5
2C7
330
28C
100
AcDbEntity
  8
0
  6
Continuous
 62
     7
370
    25
100
AcDbLine
 10
-216.4831722702
 20
60.6909585692
 30
0.0
 11
-219.5801811747
 21
57.6681829352
 31
0.0
  0
LINE
  5
2C8
330
28C
100
AcDbEntity
  8
0
  6
Continuous
 62
     7
370
    25
100
AcDbLine
 10
218.3611711231
 20
-71.1147432334
 30
0.0
 11
216.2351308049
 21
-60.9628272022
 31
0.0
  0
LINE
  5
2C9
330
28C
100
AcDbEntity
  8
0
  6
Continuous
 62
     7
370
    25
100
AcDbLine
 10
-223.2361105503
 20
48.8962109954
 30
0.0
 11
211.1683408133
 21
-69.1656107238
 31
0.0
  0
LINE
  5
2CA
330
28C
100
AcDbEntity
  8
0
  6
Continuous
 62
     7
370
    25
100
AcDbLine
 10
-222.7193541353
 20
47.9592323591
 30
0.0
 11
-223.5415528687
 21
48.8693593501
 31
0.0
  0
LINE
  5
2CB
330
28C
100
AcDbEntity
  8
0
  6
Continuous
 62
     7
370
    25
100
AcDbLine
 10
-219.5320120389
 20
57.4693448623
 30
0.0
 11
-223.5415528687
 21
48.8693593501
 31
0.0
  0
LINE
  5
2CC
330
28C
100
AcDbEntity
  8
0
  6
Continuous
 62
     7
370
    25
100
AcDbLine
 10
216.2351308049
 20
-60.9628272022
 30
0.0
 11
-219.5320120389
 21
57.4693448623
 31
0.0
  0
LINE
  5
2CD
330
28C
100
AcDbEntity
  8
0
  6
Continuous
 62
     7
370
    25
100
AcDbLine
 10
218.2970222514
 20
-71.112665502
 30
0.0
 11
200.8849181696
 21
-67.077243585
 31
0.0
  0
LINE
  5
2CE
330
28C
100
AcDbEntity
  8
0
  6
Continuous
 62
     7
370
    25
100
AcDbLine
 10
216.4936103878
 20
-60.8958565592
 30
0.0
 11
218.57136777
 21
-70.8172199015
 31
0.0
  0
LINE
  5
2CF
330
28C
100
AcDbEntity
  8
0
  6
Continuous
 62
     7
370
    25
100
AcDbLine
 10
219.5906192923
 20
-57.8730809253
 30
0.0
 11
216.4936103878
 21
-60.8958565592
 31
0.0
  0
LINE
  5
2D0
330
28C
100
AcDbEntity
  8
0
  6
Continuous
 62
     7
370
    25
100
AcDbLine
 10
222.5653676155
 20
-66.9189536105
 30
0.0
 11
219.5906192923
 21
-57.8730809253
 31
0.0
  0
LINE
  5
2D1
330
28C
100
AcDbEntity
  8
0
  6
Continuous
 62
     7
370
    25
100
AcDbLine
 10
218.57136777
 20
-70.8172199015
 30
0.0
 11
222.5653676155
 21
-66.9189536105
 31
0.0
  0
LINE
  5
2D2
330
28C
100
AcDbEntity
  8
0
  6
Continuous
 62
     7
370
    25
100
AcDbLine
 10
-197.4415247868
 20
21.6988785897
 30
0.0
 11
211.1683408133
 21
-69.1656107238
 31
0.0
  0
LINE
  5
2D3
330
28C
100
AcDbEntity
  8
0
  6
Continuous
 62
     7
370
    25
100
AcDbLine
 10
-219.4404855429
 20
57.6964901208
 30
0.0
 11
216.3266573009
 21
-60.7356819438
 31
0.0
  0
LINE
  5
2D4
330
28C
100
AcDbEntity
  8
0
  6
Continuous
 62
     7
370
    25
100
AcDbLine
 10
216.3266573009
 20
-60.7356819438
 30
0.0
 11
219.4236662054
 21
-57.7129063098
 31
0.0
  0
LINE
  5
2D5
330
28C
100
AcDbEntity
  8
0
  6
Continuous
 62
     7
370
    25
100
AcDbLine
 10
-216.3434766384
 20
60.7192657547
 30
0.0
 11
-219.4404855429
 21
57.6964901208
 31
0.0
  0
LINE
  5
2D6
330
28C
100
AcDbEntity
  8
0
  6
Continuous
 62
     7
370
    25
100
AcDbLine
 10
219.4236662054
 20
-57.7129063098
 30
0.0
 11
-216.3434766384
 21
60.7192657547
 31
0.0
  0
ARC
  5
2D7
330
28C
100
AcDbEntity
  8
0
  6
Continuous
 62
     7
370
    25
100
AcDbCircle
 10
219.4236662054
 20
-57.88433977
 30
0.0
 40
0.2000000000000226
100
AcDbArc
 50
18.2035250685
 51
74.7954868413
  0
ARC
  5
2D8
330
28C
100
AcDbEntity
  8
0
  6
Continuous
 62
     7
370
    25
100
AcDbCircle
 10
222.3984145286
 20
-66.9302124553
 30
0.0
 40
0.1999999999999123
100
AcDbArc
 50
314.305033619
 51
18.2035250685
  0
ARC
  5
2D9
330
28C
100
AcDbEntity
  8
0
  6
Continuous
 62
     7
370
    25
100
AcDbCircle
 10
-219.4404855429
 20
57.5250566606
 30
0.0
 40
0.1999999999986534
100
AcDbArc
 50
134.3050336189
 51
155.0038213433
  0
ARC
  5
2DA
330
28C
100
AcDbEntity
  8
0
  6
Continuous
 62
     7
370
    25
100
AcDbCircle
 10
-216.3434766384
 20
60.5478322946
 30
0.0
 40
0.1999999999998917
100
AcDbArc
 50
74.7954868413
 51
134.305033619
  0
ARC
  5
2DB
330
28C
100
AcDbEntity
  8
0
  6
Continuous
 62
     7
370
    25
100
AcDbCircle
 10
218.3341960144
 20
-70.9562653026
 30
0.0
 40
0.1607573047641776
100
AcDbArc
 50
256.6298239438
 51
279.6599428971
  0
ARC
  5
2DC
330
28C
100
AcDbEntity
  8
0
  6
Continuous
 62
     7
370
    25
100
AcDbCircle
 10
216.1772406129
 20
-60.2070958653
 30
0.0
 40
0.7579453331297589
100
AcDbArc
 50
274.3803911504
 51
294.6708293453
  0
ARC
  5
2DD
330
28C
100
AcDbEntity
  8
0
  6
Continuous
 62
     7
370
    25
100
AcDbCircle
 10
218.2142103653
 20
-70.7879048655
 30
0.0
 40
0.3583584561456637
100
AcDbArc
 50
294.2107582978
 51
355.3077518429
  0
ARC
  5
2DE
330
28C
100
AcDbEntity
  8
0
  6
Continuous
 62
     7
370
    25
100
AcDbCircle
 10
-196.6566672565
 20
25.1750661085
 30
0.0
 40
3.56368924137303
100
AcDbArc
 50
232.307505233
 51
257.2770250061
  0
ARC
  5
2DF
330
28C
100
AcDbEntity
  8
0
  6
Continuous
 62
     7
370
    25
100
AcDbCircle
 10
-132.9957624646
 20
107.3716819372
 30
0.0
 40
107.5300010438996
100
AcDbArc
 50
212.943114668
 51
232.2445392976
  0
ARC
  5
2E0
330
28C
100
AcDbEntity
  8
0
  6
Continuous
 62
     7
370
    25
100
AcDbCircle
 10
216.6334783994
 20
-60.9913258185
 30
0.0
 40
0.3993657185425963
100
AcDbArc
 50
140.1988787111
 51
175.9079126138
  0
ARC
  5
2E1
330
28C
100
AcDbEntity
  8
0
  6
Continuous
 62
     7
370
    25
100
AcDbCircle
 10
216.2554356369
 20
-60.9770141729
 30
0.0
 40
0.2516222769400958
100
AcDbArc
 50
18.8164501951
 51
73.5576821991
  0
ARC
  5
2E2
330
28C
100
AcDbEntity
  8
0
  6
Continuous
 62
     7
370
    25
100
AcDbCircle
 10
-219.1336644444
 20
57.4408462461
 30
0.0
 40
0.3993657185428784
100
AcDbArc
 50
140.1988787111
 51
175.9079126138
  0
ARC
  5
2E3
330
28C
100
AcDbEntity
  8
0
  6
Continuous
 62
     7
370
    25
100
AcDbCircle
 10
219.3524445414
 20
-57.954238539
 30
0.0
 40
0.251622276940026
100
AcDbArc
 50
18.8164501951
 51
73.5576821991
  0
ARC
  5
2E4
330
28C
100
AcDbEntity
  8
0
  6
Continuous
 62
     7
370
    25
100
AcDbCircle
 10
-133.0609683788
 20
107.1877013389
 30
0.0
 40
107.4552822068334
100
AcDbArc
 50
213.4488129845
 51
232.2747859622
  0
ARC
  5
2E5
330
28C
100
AcDbEntity
  8
0
  6
Continuous
 62
     7
370
    25
100
AcDbCircle
 10
-196.5238800451
 20
25.1856936225
 30
0.0
 40
3.764118128755702
100
AcDbArc
 50
232.5985950205
 51
257.2388097987
  0
ARC
  5
2E6
330
28C
100
AcDbEntity
  8
0
  6
Continuous
 62
     7
370
    25
100
AcDbCircle
 10
-223.3225852356
 20
49.0250614779
 30
0.0
 40
0.2741980596112241
100
AcDbArc
 50
150.2449086765
 51
206.0860751308
  0
ARC
  5
2E7
330
28C
100
AcDbEntity
  8
0
  6
Continuous
 62
     8
370
    25
100
AcDbCircle
 10
222.4296501481
 20
-66.9745908003
 30
0.0
 40
0.1466789959317411
100
AcDbArc
 50
317.6835573005
 51
22.2911093527
  0
ARC
  5
2E8
330
28C
100
AcDbEntity
  8
0
  6
Continuous
 62
     8
370
    25
100
AcDbCircle
 10
219.4674077751
 20
-57.7447243125
 30
0.0
 40
0.0540898346878651
100
AcDbArc
 50
80.7318299954
 51
143.9675277134
  0
ARC
  5
2E9
330
28C
100
AcDbEntity
  8
0
  6
Continuous
 62
     8
370
    25
100
AcDbCircle
 10
-216.2997350687
 20
60.687447752
 30
0.0
 40
0.0540898346879225
100
AcDbArc
 50
80.7318299954
 51
143.9675277134
  0
ARC
  5
2EA
330
28C
100
AcDbEntity
  8
0
  6
Continuous
 62
     8
370
    25
100
AcDbCircle
 10
-219.4857198454
 20
57.5608691253
 30
0.0
 40
0.1429657180045904
100
AcDbArc
 50
71.5546702156
 51
131.3553518555
  0
ARC
  5
2EB
330
28C
100
AcDbEntity
  8
0
  6
Continuous
 62
     8
370
    25
100
AcDbCircle
 10
-216.3887109409
 20
60.5836447593
 30
0.0
 40
0.1429657180046376
100
AcDbArc
 50
71.5546702156
 51
131.3553518555
  0
VIEWPORT
  5
42E
330
28C
100
AcDbEntity
  8
0
100
AcDbViewport
 10
0.0
 20
0.0
 30
0.0
 40
205.6
 41
156.0
 68
     1
 69
     1
 12
0.0199765585
 22
-13.4857751564
 13
0.0
 23
0.0
 14
10.0
 24
10.0
 15
10.0
 25
10.0
 16
0.0
 26
0.0
 36
1.0
 17
0.0
 27
0.0
 37
0.0
 42
50.0
 43
0.0
 44
0.0
 45
386.8745690718
 50
0.0
 51
0.0
 72
   100
 90
   557152
  1

281
     0
 71
     1
 74
     0
110
0.0
120
0.0
130
0.0
111
1.0
121
0.0
131
0.0
112
0.0
122
1.0
132
0.0
 79
     0
146
0.0
  0
ENDBLK
  5
28F
330
28C
100
AcDbEntity
  8
0
100
AcDbBlockEnd
  0
BLOCK
  5
2EE
330
2EC
100
AcDbEntity
  8
0
100
AcDbBlockBegin
  2
*Paper_Space6
 70
     0
 10
0.0
 20
0.0
 30
0.0
  3
*Paper_Space6
  1

  0
LWPOLYLINE
  5
2FB
330
2EC
100
AcDbEntity
  8
0
  6
Continuous
 62
     7
370
    25
100
AcDbPolyline
 90
       12
 70
   128
 43
0.0
 10
224.1147548483
 20
-39.6238112454
 10
224.6657573383
 20
-39.700923016
 10
224.8827247112
 20
-39.7511307774
 10
224.7599167357
 20
-39.7731062003
 10
224.3005825002
 20
-39.7662678884
 10
223.5168744527
 20
-39.7307967606
 10
222.4295268873
 20
-39.6676312644
 10
221.0673073844
 20
-39.5784425474
 10
219.466255717
 20
-39.465590245
 10
217.6687303582
 20
-39.3320600516
 10
215.722287818
 20
-39.1813847297
 10
213.9414051131
 20
-39.0389287298
  0
SPLINE
  5
301
330
2EC
100
AcDbEntity
  8
0
  6
Continuous
 62
     7
370
    25
100
AcDbSpline
210
0.0
220
0.0
230
1.0
 70
     8
 71
     3
 72
    18
 73
    14
 74
     0
 42
0.000000001
 43
0.00000001
 40
0.0
 40
0.0
 40
0.0
 40
0.0
 40
0.5000000000000288
 40
0.5000000000000288
 40
0.7500000000000434
 40
0.7500000000000434
 40
0.8750000000000504
 40
0.8750000000000504
 40
0.9375000000000426
 40
0.9375000000000426
 40
0.9687500000000213
 40
0.9687500000000213
 40
1.0
 40
1.0
 40
1.0
 40
1.0
 10
-234.7683209035461
 20
17.36040094357723
 30
0.0
 10
-234.9123072639928
 20
17.49302797070519
 30
0.0
 10
-235.0484328282795
 20
17.63536995523722
 30
0.0
 10
-235.2332373543441
 20
17.86617826809285
 30
0.0
 10
-235.2922594054039
 20
17.94602084427561
 30
0.0
 10
-235.3663660536529
 20
18.07522804261159
 30
0.0
 10
-235.3898645677101
 20
18.12009157003237
 30
0.0
 10
-235.408156785428
 20
18.1923698213741
 30
0.0
 10
-235.4123093611488
 20
18.21994200138021
 30
0.0
 10
-235.3944003926805
 20
18.25096350635383
 30
0.0
 10
-235.3838657743294
 20
18.25778937591011
 30
0.0
 10
-235.3613901919863
 20
18.26348049774298
 30
0.0
 10
-235.349501271367
 20
18.26324386924832
 30
0.0
 10
-235.337789289547
 20
18.26176829823692
 30
0.0
  0
LWPOLYLINE
  5
314
330
2EC
100
AcDbEntity
  8
0
  6
Continuous
 62
     7
370
    25
100
AcDbPolyline
 90
        4
 70
   128
 43
0.0
 10
234.9496782271
 20
-37.5868622385
 10
234.9501037028
 20
-37.5891386697
 10
234.9468872683
 20
-37.5985583922
 10
234.9364852294
 20
-37.609954967
  0
LWPOLYLINE
  5
315
330
2EC
100
AcDbEntity
  8
0
  6
Continuous
 62
     7
370
    25
100
AcDbPolyline
 90
        9
 70
   128
 43
0.0
 10
-208.1273048867
 20
-4.4408329206
 10
-208.1517344424
 20
-4.447009922
 10
-208.1706155387
 20
-4.4411033806
 10
-208.1826691456
 20
-4.4235134129
 10
-208.1870787361
 20
-4.3954315864
 10
-208.1835455989
 20
-4.3587602004
 10
-208.1723090732
 20
-4.3159834223
 10
-208.1541303359
 20
-4.2699990066
 10
-208.1302408383
 20
-4.2239219973
  0
SPLINE
  5
319
330
2EC
100
AcDbEntity
  8
0
  6
Continuous
 62
     7
370
    25
100
AcDbSpline
210
0.0
220
0.0
230
1.0
 70
     8
 71
     3
 72
     8
 73
     4
 74
     0
 42
0.000000001
 43
0.00000001
 40
0.0
 40
0.0
 40
0.0
 40
0.0
 40
0.0000453377850437
 40
0.0000453377850437
 40
0.0000453377850437
 40
0.0000453377850437
 10
-235.6576829759306
 20
18.18764334657872
 30
0.0
 10
-235.6685190250145
 20
18.19782134299832
 30
0.0
 10
-235.6787060187584
 20
18.20843235488365
 30
0.0
 10
-235.6879389613656
 20
18.21913036563666
 30
0.0
  0
LWPOLYLINE
  5
31A
330
2EC
100
AcDbEntity
  8
0
  6
Continuous
 62
     8
370
    25
100
AcDbPolyline
 90
        8
 70
   128
 43
0.0
 10
-206.5920483482
 20
-4.9216829458
 10
-206.6035833138
 20
-4.9174011841
 10
-206.6185430609
 20
-4.8997767621
 10
-206.6305327772
 20
-4.8698009798
 10
-206.6387178692
 20
-4.8295604246
 10
-206.64252858
 20
-4.7818562053
 10
-206.6416996495
 20
-4.73000897
 10
-206.6362887787
 20
-4.6776277583
  0
LWPOLYLINE
  5
31C
330
2EC
100
AcDbEntity
  8
0
  6
Continuous
 62
     8
370
    25
100
AcDbPolyline
 90
        4
 70
   128
 43
0.0
 10
231.8034036413
 20
-28.1300497325
 10
231.803829117
 20
-28.1323261636
 10
231.8006126826
 20
-28.1417458861
 10
231.7902106436
 20
-28.153142461
  0
LWPOLYLINE
  5
31D
330
2EC
100
AcDbEntity
  8
0
  6
Continuous
 62
     8
370
    25
100
AcDbPolyline
 90
        3
 70
   128
 43
0.0
 10
231.638630914
 20
-27.9947556314
 10
231.627425883
 20
-27.9960823146
 10
231.613630914
 20
-28.0046251714
  0
LWPOLYLINE
  5
31E
330
2EC
100
AcDbEntity
  8
0
  6
Continuous
 62
     8
370
    25
100
AcDbPolyline
 90
        3
 70
   128
 43
0.0
 10
-229.2551785367
 20
30.0724062737
 10
-229.2663835677
 20
30.0710795905
 10
-229.2801785366
 20
30.0625367337
  0
LWPOLYLINE
  5
31F
330
2EC
100
AcDbEntity
  8
0
  6
Continuous
 62
     8
370
    25
100
AcDbPolyline
 90
        8
 70
   128
 43
0.0
 10
-231.6957102268
 20
27.7806562264
 10
-231.7267568333
 20
27.7972303241
 10
-231.7542566836
 20
27.8140727968
 10
-231.7772381574
 20
27.8305885689
 10
-231.794889277
 20
27.8461941077
 10
-231.8065863957
 20
27.8603380408
 10
-231.8119162328
 20
27.872520637
 10
-231.8112274261
 20
27.8811722889
  0
LINE
  5
322
330
2EC
100
AcDbEntity
  8
0
  6
Continuous
 62
     7
370
    25
100
AcDbLine
 10
-206.5920483482
 20
-4.9216829458
 30
0.0
 11
213.9414051131
 21
-39.0389287298
 31
0.0
  0
LINE
  5
323
330
2EC
100
AcDbEntity
  8
0
  6
Continuous
 62
     7
370
    25
100
AcDbLine
 10
231.7896050811
 20
-40.5362248948
 30
0.0
 11
234.8921930654
 21
-37.7999994857
 31
0.0
  0
LINE
  5
324
330
2EC
100
AcDbEntity
  8
0
  6
Continuous
 62
     7
370
    25
100
AcDbLine
 10
234.9496782271
 20
-37.5868622385
 30
0.0
 11
231.8034036413
 21
-28.1300497325
 31
0.0
  0
LINE
  5
325
330
2EC
100
AcDbEntity
  8
0
  6
Continuous
 62
     7
370
    25
100
AcDbLine
 10
231.638630914
 20
-27.9947556314
 30
0.0
 11
-229.2551785367
 21
30.0724062737
 31
0.0
  0
LINE
  5
326
330
2EC
100
AcDbEntity
  8
0
  6
Continuous
 62
     7
370
    25
100
AcDbLine
 10
-231.8112274261
 20
27.8811722889
 30
0.0
 11
-235.701313938
 21
18.462215528
 31
0.0
  0
LINE
  5
327
330
2EC
100
AcDbEntity
  8
0
  6
Continuous
 62
     7
370
    25
100
AcDbLine
 10
-229.4124661022
 20
30.0239749253
 30
0.0
 11
-231.7586602678
 21
27.9548261621
 31
0.0
  0
LINE
  5
328
330
2EC
100
AcDbEntity
  8
0
  6
Continuous
 62
     7
370
    25
100
AcDbLine
 10
-206.6362887787
 20
-4.6776277583
 30
0.0
 11
224.1147548483
 21
-39.6238112454
 31
0.0
  0
LINE
  5
329
330
2EC
100
AcDbEntity
  8
0
  6
Continuous
 62
     7
370
    25
100
AcDbLine
 10
-235.3377892895
 20
18.2617682982
 30
0.0
 11
224.1147548483
 21
-39.6238112454
 31
0.0
  0
LINE
  5
32A
330
2EC
100
AcDbEntity
  8
0
  6
Continuous
 62
     7
370
    25
100
AcDbLine
 10
231.7221645614
 20
-40.5762923493
 30
0.0
 11
229.1980992239
 21
-30.2865056787
 31
0.0
  0
LINE
  5
32B
330
2EC
100
AcDbEntity
  8
0
  6
Continuous
 62
     7
370
    25
100
AcDbLine
 10
-234.7683209035
 20
17.3604009436
 30
0.0
 11
-235.6576829759
 21
18.1876433466
 31
0.0
  0
LINE
  5
32C
330
2EC
100
AcDbEntity
  8
0
  6
Continuous
 62
     7
370
    25
100
AcDbLine
 10
-231.6957102268
 20
27.7806562264
 30
0.0
 11
-235.6576829759
 21
18.1876433466
 31
0.0
  0
LINE
  5
32D
330
2EC
100
AcDbEntity
  8
0
  6
Continuous
 62
     7
370
    25
100
AcDbLine
 10
229.1980992239
 20
-30.2865056787
 30
0.0
 11
-231.6957102268
 21
27.7806562264
 31
0.0
  0
LINE
  5
32E
330
2EC
100
AcDbEntity
  8
0
  6
Continuous
 62
     7
370
    25
100
AcDbLine
 10
231.6547586071
 20
-40.5837944216
 30
0.0
 11
211.7191141363
 21
-38.8586376095
 31
0.0
  0
LINE
  5
32F
330
2EC
100
AcDbEntity
  8
0
  6
Continuous
 62
     7
370
    25
100
AcDbLine
 10
229.444016478
 20
-30.2222912243
 30
0.0
 11
231.9107596264
 21
-40.2783941275
 31
0.0
  0
LINE
  5
330
330
2EC
100
AcDbEntity
  8
0
  6
Continuous
 62
     7
370
    25
100
AcDbLine
 10
231.7902106436
 20
-28.153142461
 30
0.0
 11
229.444016478
 21
-30.2222912243
 31
0.0
  0
LINE
  5
331
330
2EC
100
AcDbEntity
  8
0
  6
Continuous
 62
     7
370
    25
100
AcDbLine
 10
234.9364852294
 20
-37.609954967
 30
0.0
 11
231.7902106436
 21
-28.153142461
 31
0.0
  0
LINE
  5
332
330
2EC
100
AcDbEntity
  8
0
  6
Continuous
 62
     7
370
    25
100
AcDbLine
 10
231.9107596264
 20
-40.2783941275
 30
0.0
 11
234.9364852294
 21
-37.609954967
 31
0.0
  0
LINE
  5
333
330
2EC
100
AcDbEntity
  8
0
  6
Continuous
 62
     7
370
    25
100
AcDbLine
 10
-231.6263727023
 20
27.9933879704
 30
0.0
 11
229.2674367484
 21
-30.0737739346
 31
0.0
  0
LINE
  5
334
330
2EC
100
AcDbEntity
  8
0
  6
Continuous
 62
     7
370
    25
100
AcDbLine
 10
229.2674367484
 20
-30.0737739346
 30
0.0
 11
231.613630914
 21
-28.0046251714
 31
0.0
  0
LINE
  5
335
330
2EC
100
AcDbEntity
  8
0
  6
Continuous
 62
     7
370
    25
100
AcDbLine
 10
-229.2801785366
 20
30.0625367337
 30
0.0
 11
-231.6263727023
 21
27.9933879704
 31
0.0
  0
LINE
  5
336
330
2EC
100
AcDbEntity
  8
0
  6
Continuous
 62
     7
370
    25
100
AcDbLine
 10
231.613630914
 20
-28.0046251714
 30
0.0
 11
-229.2801785366
 21
30.0625367337
 31
0.0
  0
ARC
  5
337
330
2EC
100
AcDbEntity
  8
0
  6
Continuous
 62
     7
370
    25
100
AcDbCircle
 10
231.613630914
 20
-28.1931869797
 30
0.0
 40
0.1999999999998405
100
AcDbArc
 50
18.4022461963
 51
82.8192442221
  0
ARC
  5
338
330
2EC
100
AcDbEntity
  8
0
  6
Continuous
 62
     7
370
    25
100
AcDbCircle
 10
234.7599054998
 20
-37.6499994857
 30
0.0
 40
0.2000000000000455
100
AcDbArc
 50
311.40962211
 51
360.0
  0
ARC
  5
339
330
2EC
100
AcDbEntity
  8
0
  6
Continuous
 62
     7
370
    25
100
AcDbCircle
 10
-231.6263727023
 20
27.8048261621
 30
0.0
 40
0.1999999999994772
100
AcDbArc
 50
131.40962211
 51
157.5590766013
  0
ARC
  5
33A
330
2EC
100
AcDbEntity
  8
0
  6
Continuous
 62
     7
370
    25
100
AcDbCircle
 10
-229.2801785366
 20
29.8739749253
 30
0.0
 40
0.2000000000000136
100
AcDbArc
 50
82.8192442221
 51
131.40962211
  0
ARC
  5
33B
330
2EC
100
AcDbEntity
  8
0
  6
Continuous
 62
     7
370
    25
100
AcDbCircle
 10
-206.3437284635
 20
-1.0278131319
 30
0.0
 40
3.661521315611362
100
AcDbArc
 50
240.7963459915
 51
265.4171074846
  0
ARC
  5
33C
330
2EC
100
AcDbEntity
  8
0
  6
Continuous
 62
     7
370
    25
100
AcDbCircle
 10
-159.1682901489
 20
82.7230696383
 30
0.0
 40
99.78502878584837
100
AcDbArc
 50
220.240823442
 51
240.6150879894
  0
ARC
  5
33D
330
2EC
100
AcDbEntity
  8
0
  6
Continuous
 62
     7
370
    25
100
AcDbCircle
 10
231.6697904396
 20
-40.4122835625
 30
0.0
 40
0.1721683210266608
100
AcDbArc
 50
264.991189203
 51
287.7102216041
  0
ARC
  5
33E
330
2EC
100
AcDbEntity
  8
0
  6
Continuous
 62
     7
370
    25
100
AcDbCircle
 10
228.4273814512
 20
-26.8319533281
 30
0.0
 40
3.539482706249202
100
AcDbArc
 50
282.5768378831
 51
286.6920136359
  0
ARC
  5
33F
330
2EC
100
AcDbEntity
  8
0
  6
Continuous
 62
     7
370
    25
100
AcDbCircle
 10
231.5655080673
 20
-40.2684678659
 30
0.0
 40
0.3453942236134773
100
AcDbArc
 50
296.9722253882
 51
358.3531536639
  0
ARC
  5
340
330
2EC
100
AcDbEntity
  8
0
  6
Continuous
 62
     7
370
    25
100
AcDbCircle
 10
229.5568303537
 20
-30.2857642985
 30
0.0
 40
0.3587318959037942
100
AcDbArc
 50
143.7759933818
 51
180.1184115161
  0
ARC
  5
341
330
2EC
100
AcDbEntity
  8
0
  6
Continuous
 62
     7
370
    25
100
AcDbCircle
 10
229.235452738
 20
-30.2910322828
 30
0.0
 40
0.2196000154094007
100
AcDbArc
 50
18.2418357385
 51
81.6252719401
  0
ARC
  5
342
330
2EC
100
AcDbEntity
  8
0
  6
Continuous
 62
     7
370
    25
100
AcDbCircle
 10
-231.336979097
 20
27.7813976066
 30
0.0
 40
0.3587318959037643
100
AcDbArc
 50
143.7759933818
 51
180.1184115161
  0
ARC
  5
343
330
2EC
100
AcDbEntity
  8
0
  6
Continuous
 62
     7
370
    25
100
AcDbCircle
 10
231.5816469036
 20
-28.2218835195
 30
0.0
 40
0.2196000154093356
100
AcDbArc
 50
18.2418357385
 51
81.6252719401
  0
ARC
  5
344
330
2EC
100
AcDbEntity
  8
0
  6
Continuous
 62
     7
370
    25
100
AcDbCircle
 10
-159.1870960756
 20
82.542117899
 30
0.0
 40
99.80570009648895
100
AcDbArc
 50
220.7746878921
 51
240.6360926875
  0
ARC
  5
345
330
2EC
100
AcDbEntity
  8
0
  6
Continuous
 62
     7
370
    25
100
AcDbCircle
 10
-206.2592145042
 20
-1.0719905757
 30
0.0
 40
3.852124144144753
100
AcDbArc
 50
240.9907561426
 51
265.3865313367
  0
ARC
  5
346
330
2EC
100
AcDbEntity
  8
0
  6
Continuous
 62
     7
370
    25
100
AcDbCircle
 10
-235.4891953495
 20
18.3519761302
 30
0.0
 40
0.2390544297892902
100
AcDbArc
 50
152.5388094006
 51
213.7598702704
  0
ARC
  5
347
330
2EC
100
AcDbEntity
  8
0
  6
Continuous
 62
     8
370
    25
100
AcDbCircle
 10
234.7709488853
 20
-37.6715583988
 30
0.0
 40
0.1766274724424007
100
AcDbArc
 50
313.3489684731
 51
20.4124709811
  0
ARC
  5
348
330
2EC
100
AcDbEntity
  8
0
  6
Continuous
 62
     8
370
    25
100
AcDbCircle
 10
-231.6502413053
 20
27.8290806564
 30
0.0
 40
0.1660319355697905
100
AcDbArc
 50
81.7345715004
 51
130.7682222633
  0
ARC
  5
349
330
2EC
100
AcDbEntity
  8
0
  6
Continuous
 62
     8
370
    25
100
AcDbCircle
 10
-229.3040471396
 20
29.8982294197
 30
0.0
 40
0.1660319355698201
100
AcDbArc
 50
81.7345715003
 51
130.7682222632
  0
VIEWPORT
  5
430
330
2EC
100
AcDbEntity
  8
0
100
AcDbViewport
 10
0.0
 20
0.0
 30
0.0
 40
205.6
 41
156.0
 68
     1
 69
     1
 12
0.0199765585
 22
-13.4857751564
 13
0.0
 23
0.0
 14
10.0
 24
10.0
 15
10.0
 25
10.0
 16
0.0
 26
0.0
 36
1.0
 17
0.0
 27
0.0
 37
0.0
 42
50.0
 43
0.0
 44
0.0
 45
386.8745690718
 50
0.0
 51
0.0
 72
   100
 90
   557152
  1

281
     0
 71
     1
 74
     0
110
0.0
120
0.0
130
0.0
111
1.0
121
0.0
131
0.0
112
0.0
122
1.0
132
0.0
 79
     0
146
0.0
  0
ENDBLK
  5
2EF
330
2EC
100
AcDbEntity
  8
0
100
AcDbBlockEnd
  0
BLOCK
  5
34C
330
34A
100
AcDbEntity
  8
0
100
AcDbBlockBegin
  2
*Paper_Space7
 70
     0
 10
0.0
 20
0.0
 30
0.0
  3
*Paper_Space7
  1

  0
LWPOLYLINE
  5
359
330
34A
100
AcDbEntity
  8
0
  6
Continuous
 62
     7
370
    25
100
AcDbPolyline
 90
       13
 70
   128
 43
0.0
 10
175.8689103175
 20
-42.8782105774
 10
176.3055831219
 20
-42.9642903075
 10
176.4764554709
 20
-43.0181588952
 10
176.3770066535
 20
-43.0383911577
 10
176.0098677528
 20
-43.0244518172
 10
175.3847520364
 20
-42.9767096619
 10
174.5181979759
 20
-42.8964277896
 10
173.4331316939
 20
-42.7857301902
 10
172.1582604157
 20
-42.647545552
 10
170.7273129723
 20
-42.4855297784
 10
169.1781474478
 20
-42.303969265
 10
167.5517495818
 20
-42.107667496
 10
166.930494589
 20
-42.031281372
  0
SPLINE
  5
35D
330
34A
100
AcDbEntity
  8
0
  6
Continuous
 62
     7
370
    25
100
AcDbSpline
210
0.0
220
0.0
230
1.0
 70
     8
 71
     3
 72
    18
 73
    14
 74
     0
 42
0.000000001
 43
0.00000001
 40
0.0
 40
0.0
 40
0.0
 40
0.0
 40
0.5000000000000288
 40
0.5000000000000288
 40
0.7500000000000434
 40
0.7500000000000434
 40
0.8750000000000504
 40
0.8750000000000504
 40
0.9375000000000426
 40
0.9375000000000426
 40
0.9687500000000213
 40
0.9687500000000213
 40
1.0
 40
1.0
 40
1.0
 40
1.0
 10
-188.1909023479429
 20
21.52742197551799
 30
0.0
 10
-188.2989157145614
 20
21.66312666247953
 30
0.0
 10
-188.4001131308688
 20
21.80848896103412
 30
0.0
 10
-188.5354629391452
 20
22.04364286010272
 30
0.0
 10
-188.5783581959376
 20
22.12491331054965
 30
0.0
 10
-188.6306467453203
 20
22.25610233880893
 30
0.0
 10
-188.6470159222774
 20
22.30161969784517
 30
0.0
 10
-188.6577335906877
 20
22.37465074751
 30
0.0
 10
-188.6595615043696
 20
22.40246669502732
 30
0.0
 10
-188.6435511890046
 20
22.43341556841676
 30
0.0
 10
-188.6347525361419
 20
22.44012415808326
 30
0.0
 10
-188.6164615237283
 20
22.44550715338919
 30
0.0
 10
-188.6069621218124
 20
22.44508634014551
 30
0.0
 10
-188.5976714430817
 20
22.44342121547972
 30
0.0
  0
LWPOLYLINE
  5
373
330
34A
100
AcDbEntity
  8
0
  6
Continuous
 62
     7
370
    25
100
AcDbPolyline
 90
        9
 70
   128
 43
0.0
 10
-170.4562509619
 20
0.002467486
 10
-170.4956060714
 20
0.0033460185
 10
-170.5295022988
 20
0.0161759
 10
-170.5556434697
 20
0.0400880177
 10
-170.572258747
 20
0.0734625335
 10
-170.5782225905
 20
0.1140386145
 10
-170.5731310015
 20
0.1590675842
 10
-170.5573288909
 20
0.2054991217
 10
-170.5318867142
 20
0.2501878943
  0
SPLINE
  5
377
330
34A
100
AcDbEntity
  8
0
  6
Continuous
 62
     7
370
    25
100
AcDbSpline
210
0.0
220
0.0
230
1.0
 70
     8
 71
     3
 72
     8
 73
     4
 74
     0
 42
0.000000001
 43
0.00000001
 40
0.0
 40
0.0
 40
0.0
 40
0.0
 40
0.0000453377850437
 40
0.0000453377850437
 40
0.0000453377850437
 40
0.0000453377850437
 10
-188.8576336502523
 20
22.37372669661232
 30
0.0
 10
-188.8657517942803
 20
22.38413759465868
 30
0.0
 10
-188.8727298321687
 20
22.39476822645132
 30
0.0
 10
-188.8783763844258
 20
22.40527732659504
 30
0.0
  0
LWPOLYLINE
  5
378
330
34A
100
AcDbEntity
  8
0
  6
Continuous
 62
     8
370
    25
100
AcDbPolyline
 90
        8
 70
   128
 43
0.0
 10
-169.3034459122
 20
-0.4863944237
 10
-169.33626235
 20
-0.475324837
 10
-169.3650871114
 20
-0.4512090641
 10
-169.3879137306
 20
-0.4157257821
 10
-169.4031532671
 20
-0.3713449507
 10
-169.4097449103
 20
-0.3211558796
 10
-169.407229822
 20
-0.2686521852
 10
-169.3957830752
 20
-0.2174886026
  0
LWPOLYLINE
  5
37C
330
34A
100
AcDbEntity
  8
0
  6
Continuous
 62
     8
370
    25
100
AcDbPolyline
 90
        3
 70
   128
 43
0.0
 10
185.0557291724
 20
-32.1651510224
 10
185.0420884703
 20
-32.1638076406
 10
185.0158592052
 20
-32.1671114144
  0
LWPOLYLINE
  5
37D
330
34A
100
AcDbEntity
  8
0
  6
Continuous
 62
     8
370
    25
100
AcDbPolyline
 90
        3
 70
   128
 43
0.0
 10
-180.554154652
 20
33.3613894238
 10
-180.5677953541
 20
33.3627328056
 10
-180.5940246193
 20
33.3594290318
  0
LWPOLYLINE
  5
37E
330
34A
100
AcDbEntity
  8
0
  6
Continuous
 62
     8
370
    25
100
AcDbPolyline
 90
        6
 70
   128
 43
0.0
 10
-185.1677099774
 20
31.9684923559
 10
-185.1903178445
 20
31.9851912649
 10
-185.2074527965
 20
32.0012014399
 10
-185.218509424
 20
32.015957212
 10
-185.2230970758
 20
32.0289372326
 10
-185.2220890158
 20
32.0374875021
  0
LINE
  5
381
330
34A
100
AcDbEntity
  8
0
  6
Continuous
 62
     7
370
    25
100
AcDbLine
 10
-169.303443567
 20
-0.4863947135
 30
0.0
 11
166.930494589
 21
-42.031281372
 31
0.0
  0
LINE
  5
382
330
34A
100
AcDbEntity
  8
0
  6
Continuous
 62
     7
370
    25
100
AcDbLine
 10
181.8930491802
 20
-43.9572720874
 30
0.0
 11
187.7887484594
 21
-42.3675368811
 31
0.0
  0
LINE
  5
383
330
34A
100
AcDbEntity
  8
0
  6
Continuous
 62
     7
370
    25
100
AcDbLine
 10
187.9294308294
 20
-42.1210771169
 30
0.0
 11
185.2131976262
 21
-32.3086576027
 31
0.0
  0
LINE
  5
384
330
34A
100
AcDbEntity
  8
0
  6
Continuous
 62
     7
370
    25
100
AcDbLine
 10
185.0557291724
 20
-32.1651510224
 30
0.0
 11
-180.554154652
 21
33.3613894238
 31
0.0
  0
LINE
  5
385
330
34A
100
AcDbEntity
  8
0
  6
Continuous
 62
     7
370
    25
100
AcDbLine
 10
-185.2220890158
 20
32.0374875021
 30
0.0
 11
-188.8748464611
 21
22.5393637453
 31
0.0
  0
LINE
  5
386
330
34A
100
AcDbEntity
  8
0
  6
Continuous
 62
     7
370
    25
100
AcDbLine
 10
-180.6415064671
 20
33.3576293689
 30
0.0
 11
-185.0874864269
 21
32.1588011157
 31
0.0
  0
LINE
  5
387
330
34A
100
AcDbEntity
  8
0
  6
Continuous
 62
     7
370
    25
100
AcDbLine
 10
-169.3957830752
 20
-0.2174886026
 30
0.0
 11
175.8689103175
 21
-42.8782105774
 31
0.0
  0
LINE
  5
388
330
34A
100
AcDbEntity
  8
0
  6
Continuous
 62
     7
370
    25
100
AcDbLine
 10
181.9039081415
 20
-43.9537755891
 30
0.0
 11
180.4421738471
 21
-33.5580480904
 31
0.0
  0
LINE
  5
389
330
34A
100
AcDbEntity
  8
0
  6
Continuous
 62
     7
370
    25
100
AcDbLine
 10
-188.5976714431
 20
22.4434212155
 30
0.0
 11
175.8689103175
 21
-42.8782105774
 31
0.0
  0
LINE
  5
38A
330
34A
100
AcDbEntity
  8
0
  6
Continuous
 62
     7
370
    25
100
AcDbLine
 10
-188.1909023479
 20
21.5274219755
 30
0.0
 11
-188.8576336503
 21
22.3737266966
 31
0.0
  0
LINE
  5
38B
330
34A
100
AcDbEntity
  8
0
  6
Continuous
 62
     7
370
    25
100
AcDbLine
 10
-185.1677099774
 20
31.9684923559
 30
0.0
 11
-188.8576336503
 21
22.3737266966
 31
0.0
  0
LINE
  5
38C
330
34A
100
AcDbEntity
  8
0
  6
Continuous
 62
     7
370
    25
100
AcDbLine
 10
180.4421738471
 20
-33.5580480904
 30
0.0
 11
-185.1677099774
 21
31.9684923559
 31
0.0
  0
LINE
  5
38D
330
34A
100
AcDbEntity
  8
0
  6
Continuous
 62
     7
370
    25
100
AcDbLine
 10
181.8495705447
 20
-43.9602911256
 30
0.0
 11
165.5734588756
 21
-41.8636067607
 31
0.0
  0
LINE
  5
38E
330
34A
100
AcDbEntity
  8
0
  6
Continuous
 62
     7
370
    25
100
AcDbLine
 10
180.7130251153
 20
-33.5215610758
 30
0.0
 11
182.1415630386
 21
-43.681198863
 31
0.0
  0
LINE
  5
38F
330
34A
100
AcDbEntity
  8
0
  6
Continuous
 62
     7
370
    25
100
AcDbLine
 10
185.159005075
 20
-32.3227328226
 30
0.0
 11
180.7130251153
 21
-33.5215610758
 31
0.0
  0
LINE
  5
390
330
34A
100
AcDbEntity
  8
0
  6
Continuous
 62
     7
370
    25
100
AcDbLine
 10
187.8752382782
 20
-42.1351523369
 30
0.0
 11
185.159005075
 21
-32.3227328226
 31
0.0
  0
LINE
  5
391
330
34A
100
AcDbEntity
  8
0
  6
Continuous
 62
     7
370
    25
100
AcDbLine
 10
182.1415630386
 20
-43.681198863
 30
0.0
 11
187.8752382782
 21
-42.1351523369
 31
0.0
  0
LINE
  5
392
330
34A
100
AcDbEntity
  8
0
  6
Continuous
 62
     7
370
    25
100
AcDbLine
 10
-185.040004579
 20
32.1606007786
 30
0.0
 11
180.5698792455
 21
-33.3659396676
 31
0.0
  0
LINE
  5
393
330
34A
100
AcDbEntity
  8
0
  6
Continuous
 62
     7
370
    25
100
AcDbLine
 10
180.5698792455
 20
-33.3659396676
 30
0.0
 11
185.0158592052
 21
-32.1671114144
 31
0.0
  0
LINE
  5
394
330
34A
100
AcDbEntity
  8
0
  6
Continuous
 62
     7
370
    25
100
AcDbLine
 10
-180.5940246193
 20
33.3594290318
 30
0.0
 11
-185.040004579
 21
32.1606007786
 31
0.0
  0
LINE
  5
395
330
34A
100
AcDbEntity
  8
0
  6
Continuous
 62
     7
370
    25
100
AcDbLine
 10
185.0158592052
 20
-32.1671114144
 30
0.0
 11
-180.5940246193
 21
33.3594290318
 31
0.0
  0
ARC
  5
396
330
34A
100
AcDbEntity
  8
0
  6
Continuous
 62
     7
370
    25
100
AcDbCircle
 10
187.73667951
 20
-42.1744337364
 30
0.0
 40
0.2000000000000817
100
AcDbArc
 50
285.0905191974
 51
1.3482260815
  0
ARC
  5
397
330
34A
100
AcDbEntity
  8
0
  6
Continuous
 62
     7
370
    25
100
AcDbCircle
 10
185.0204463068
 20
-32.3620142221
 30
0.0
 40
0.2000000000000204
100
AcDbArc
 50
15.4729316907
 51
79.8390262129
  0
ARC
  5
398
330
34A
100
AcDbEntity
  8
0
  6
Continuous
 62
     7
370
    25
100
AcDbCircle
 10
-185.0354174775
 20
31.9656979709
 30
0.0
 40
0.1999999999998955
100
AcDbArc
 50
105.0905191974
 51
158.9644179738
  0
ARC
  5
399
330
34A
100
AcDbEntity
  8
0
  6
Continuous
 62
     7
370
    25
100
AcDbCircle
 10
-180.5894375177
 20
33.1645262241
 30
0.0
 40
0.2000000000003141
100
AcDbArc
 50
79.8390262129
 51
105.0905191974
  0
ARC
  5
39A
330
34A
100
AcDbEntity
  8
0
  6
Continuous
 62
     7
370
    25
100
AcDbCircle
 10
181.8637047289
 20
-43.8483286306
 30
0.0
 40
0.1128511207057528
100
AcDbArc
 50
262.805021042
 51
290.8701825591
  0
ARC
  5
39B
330
34A
100
AcDbEntity
  8
0
  6
Continuous
 62
     7
370
    25
100
AcDbCircle
 10
180.7373598395
 20
-34.725741447
 30
0.0
 40
1.204426230678232
100
AcDbArc
 50
91.1577063297
 51
104.186817258
  0
ARC
  5
39C
330
34A
100
AcDbEntity
  8
0
  6
Continuous
 62
     7
370
    25
100
AcDbCircle
 10
181.6255787879
 20
-43.4712131318
 30
0.0
 40
0.5570760758847177
100
AcDbArc
 50
299.9752193261
 51
337.8555686622
  0
ARC
  5
39D
330
34A
100
AcDbEntity
  8
0
  6
Continuous
 62
     7
370
    25
100
AcDbCircle
 10
-169.1283978825
 20
2.045835917
 30
0.0
 40
2.279064001339894
100
AcDbArc
 50
231.9886120328
 51
263.262405932
  0
ARC
  5
39E
330
34A
100
AcDbEntity
  8
0
  6
Continuous
 62
     7
370
    25
100
AcDbCircle
 10
-128.2699418821
 20
53.1019410456
 30
0.0
 40
67.67111490252906
100
AcDbArc
 50
206.9396529558
 51
231.3530561194
  0
ARC
  5
39F
330
34A
100
AcDbEntity
  8
0
  6
Continuous
 62
     7
370
    25
100
AcDbCircle
 10
180.6584143601
 20
-33.5632947288
 30
0.0
 40
0.2163041531992501
100
AcDbArc
 50
114.1613992272
 51
178.6101065664
  0
ARC
  5
3A0
330
34A
100
AcDbEntity
  8
0
  6
Continuous
 62
     7
370
    25
100
AcDbCircle
 10
180.5121912081
 20
-33.5626490151
 30
0.0
 40
0.204993846361133
100
AcDbArc
 50
11.5623971435
 51
73.6554146024
  0
ARC
  5
3A1
330
34A
100
AcDbEntity
  8
0
  6
Continuous
 62
     7
370
    25
100
AcDbCircle
 10
-184.9514694644
 20
31.9632457175
 30
0.0
 40
0.2163041531992246
100
AcDbArc
 50
114.1613992272
 51
178.6101065664
  0
ARC
  5
3A2
330
34A
100
AcDbEntity
  8
0
  6
Continuous
 62
     7
370
    25
100
AcDbCircle
 10
184.9581711678
 20
-32.3638207619
 30
0.0
 40
0.2049938463611398
100
AcDbArc
 50
11.5623971435
 51
73.6554146024
  0
ARC
  5
3A3
330
34A
100
AcDbEntity
  8
0
  6
Continuous
 62
     7
370
    25
100
AcDbCircle
 10
187.6146737953
 20
-41.1562761463
 30
0.0
 40
1.014846246239395
100
AcDbArc
 50
284.6110303245
 51
288.0684171511
  0
ARC
  5
3A4
330
34A
100
AcDbEntity
  8
0
  6
Continuous
 62
     7
370
    25
100
AcDbCircle
 10
-128.3287661224
 20
52.7801409873
 30
0.0
 40
67.52931066669494
100
AcDbArc
 50
207.5680819287
 51
231.4029032582
  0
ARC
  5
3A5
330
34A
100
AcDbEntity
  8
0
  6
Continuous
 62
     7
370
    25
100
AcDbCircle
 10
-168.9839477767
 20
1.9054735824
 30
0.0
 40
2.406056705925232
100
AcDbArc
 50
232.2718709063
 51
263.197897215
  0
ARC
  5
3A6
330
34A
100
AcDbEntity
  8
0
  6
Continuous
 62
     7
370
    25
100
AcDbCircle
 10
-188.7241547922
 20
22.4683070033
 30
0.0
 40
0.1666044406937368
100
AcDbArc
 50
154.7543742358
 51
202.229615508
  0
ARC
  5
3A7
330
34A
100
AcDbEntity
  8
0
  6
Continuous
 62
     8
370
    25
100
AcDbCircle
 10
187.7056577551
 20
-42.2043245097
 30
0.0
 40
0.1831456888082777
100
AcDbArc
 50
296.9804453271
 51
22.1906278
  0
ARC
  5
3A8
330
34A
100
AcDbEntity
  8
0
  6
Continuous
 62
     8
370
    25
100
AcDbCircle
 10
188.2098522554
 20
-43.3121224273
 30
0.0
 40
1.223611501868733
100
AcDbArc
 50
103.2485179336
 51
105.8705131873
  0
ARC
  5
3A9
330
34A
100
AcDbEntity
  8
0
  6
Continuous
 62
     8
370
    25
100
AcDbCircle
 10
185.4936190522
 20
-33.4997029131
 30
0.0
 40
1.223611501961771
100
AcDbArc
 50
103.2485179337
 51
105.8705131872
  0
ARC
  5
3AA
330
34A
100
AcDbEntity
  8
0
  6
Continuous
 62
     8
370
    25
100
AcDbCircle
 10
-185.0597803692
 20
32.0550858716
 30
0.0
 40
0.1073521191241269
100
AcDbArc
 50
79.3846750223
 51
104.95651061
  0
ARC
  5
3AB
330
34A
100
AcDbEntity
  8
0
  6
Continuous
 62
     8
370
    25
100
AcDbCircle
 10
-180.6138004095
 20
33.2539141248
 30
0.0
 40
0.1073521191241723
100
AcDbArc
 50
79.3846750224
 51
104.95651061
  0
VIEWPORT
  5
432
330
34A
100
AcDbEntity
  8
0
100
AcDbViewport
 10
0.0
 20
0.0
 30
0.0
 40
205.6
 41
156.0
 68
     1
 69
     1
 12
0.0199765585
 22
-13.4857751564
 13
0.0
 23
0.0
 14
10.0
 24
10.0
 15
10.0
 25
10.0
 16
0.0
 26
0.0
 36
1.0
 17
0.0
 27
0.0
 37
0.0
 42
50.0
 43
0.0
 44
0.0
 45
386.8745690718
 50
0.0
 51
0.0
 72
   100
 90
   557152
  1

281
     0
 71
     1
 74
     0
110
0.0
120
0.0
130
0.0
111
1.0
121
0.0
131
0.0
112
0.0
122
1.0
132
0.0
 79
     0
146
0.0
  0
ENDBLK
  5
34D
330
34A
100
AcDbEntity
  8
0
100
AcDbBlockEnd
  0
BLOCK
  5
3AE
330
3AC
100
AcDbEntity
  8
0
100
AcDbBlockBegin
  2
*Paper_Space8
 70
     0
 10
0.0
 20
0.0
 30
0.0
  3
*Paper_Space8
  1

  0
LWPOLYLINE
  5
3C1
330
3AC
100
AcDbEntity
  8
0
  6
Continuous
 62
     7
370
    25
100
AcDbPolyline
 90
        9
 70
   128
 43
0.0
 10
168.4614983165
 20
-53.3437677962
 10
168.4625941862
 20
-53.3429531409
 10
168.4636900443
 20
-53.3421384584
 10
168.4647858909
 20
-53.3413237488
 10
168.4658817259
 20
-53.3405090121
 10
168.4669775493
 20
-53.3396942482
 10
168.4680733612
 20
-53.3388794571
 10
168.4691691616
 20
-53.3380646389
 10
168.4702649504
 20
-53.3372497936
  0
LWPOLYLINE
  5
3C6
330
3AC
100
AcDbEntity
  8
0
  6
Continuous
 62
     7
370
    25
100
AcDbPolyline
 90
       17
 70
   128
 43
0.0
 10
108.2347500987
 20
-33.3184484287
 10
108.156600927
 20
-32.6421699744
 10
107.9077160013
 20
-32.0227894536
 10
107.5259857953
 20
-31.5546019359
 10
107.0695252725
 20
-31.3088847267
 10
106.6078264097
 20
-31.3230460437
 10
106.2111786734
 20
-31.5949299548
 10
105.9399680859
 20
-32.0831445991
 10
105.8354840005
 20
-32.7133637226
 10
105.9136331722
 20
-33.3896421769
 10
106.1625180979
 20
-34.0090226977
 10
106.5442483039
 20
-34.4772102154
 10
107.0007088266
 20
-34.7229274246
 10
107.4624076895
 20
-34.7087661076
 10
107.8590554257
 20
-34.4368821965
 10
108.1302660133
 20
-33.9486675522
 10
108.2347500987
 20
-33.3184484287
  0
LWPOLYLINE
  5
3C7
330
3AC
100
AcDbEntity
  8
0
  6
Continuous
 62
     7
370
    25
100
AcDbPolyline
 90
       17
 70
   128
 43
0.0
 10
-111.1267217307
 20
22.0035818347
 10
-111.2048709024
 20
22.6798602889
 10
-111.4537558281
 20
23.2992408097
 10
-111.8354860341
 20
23.7674283274
 10
-112.2919465568
 20
24.0131455366
 10
-112.7536454197
 20
23.9989842196
 10
-113.1502931559
 20
23.7271003085
 10
-113.4215037435
 20
23.2388856642
 10
-113.5259878288
 20
22.6086665407
 10
-113.4478386572
 20
21.9323880864
 10
-113.1989537315
 20
21.3130075656
 10
-112.8172235255
 20
20.8448200479
 10
-112.3607630027
 20
20.5991028387
 10
-111.8990641399
 20
20.6132641558
 10
-111.5024164036
 20
20.8851480668
 10
-111.2312058161
 20
21.3733627111
 10
-111.1267217307
 20
22.0035818347
  0
LWPOLYLINE
  5
3CA
330
3AC
100
AcDbEntity
  8
0
  6
Continuous
 62
     7
370
    25
100
AcDbPolyline
 90
        9
 70
   128
 43
0.0
 10
168.6920263237
 20
-53.4890147941
 10
168.6909287353
 20
-53.4898309777
 10
168.6898311353
 20
-53.4906471341
 10
168.6887335237
 20
-53.4914632633
 10
168.6876359006
 20
-53.4922793653
 10
168.6865382658
 20
-53.4930954401
 10
168.6854406195
 20
-53.4939114877
 10
168.6843429617
 20
-53.4947275081
 10
168.6832452922
 20
-53.4955435014
  0
LWPOLYLINE
  5
3CE
330
3AC
100
AcDbEntity
  8
0
  6
Continuous
 62
     7
370
    25
100
AcDbPolyline
 90
        8
 70
   128
 43
0.0
 10
175.1059295735
 20
-52.2862404198
 10
175.1137538332
 20
-52.2698815458
 10
175.1130222293
 20
-52.2490859305
 10
175.103759528
 20
-52.2245575448
 10
175.0862792894
 20
-52.1971267209
 10
175.0611732525
 20
-52.1677220441
 10
175.0292913041
 20
-52.1373389183
 10
174.9917127085
 20
-52.1070058699
  0
SPLINE
  5
3D7
330
3AC
100
AcDbEntity
  8
0
  6
Continuous
 62
     7
370
    25
100
AcDbSpline
210
0.0
220
0.0
230
1.0
 70
     8
 71
     3
 72
     8
 73
     4
 74
     0
 42
0.000000001
 43
0.00000001
 40
0.0
 40
0.0
 40
0.0
 40
0.0
 40
0.0000453377850437
 40
0.0000453377850437
 40
0.0000453377850437
 40
0.0000453377850437
 10
175.0878809142491
 20
-52.30364866468426
 30
0.0
 10
175.0951781705905
 20
-52.29752514803398
 30
0.0
 10
175.1012478961637
 20
-52.29166283217787
 30
0.0
 10
175.1059295734806
 20
-52.28624041976859
 30
0.0
  0
LWPOLYLINE
  5
3E5
330
3AC
100
AcDbEntity
  8
0
  6
Continuous
 62
     8
370
    25
100
AcDbPolyline
 90
        3
 70
   128
 43
0.0
 10
171.3525672401
 20
-42.1365711009
 10
171.332400567
 20
-42.1336155106
 10
171.3075918184
 20
-42.1354108407
  0
LWPOLYLINE
  5
3E6
330
3AC
100
AcDbEntity
  8
0
  6
Continuous
 62
     8
370
    25
100
AcDbPolyline
 90
        3
 70
   128
 43
0.0
 10
-166.4066593001
 20
43.0448693615
 10
-166.4268259733
 20
43.0478249518
 10
-166.4516347219
 20
43.0460296217
  0
LWPOLYLINE
  5
3E9
330
3AC
100
AcDbEntity
  8
0
  6
Continuous
 62
     8
370
    25
100
AcDbPolyline
 90
        6
 70
   128
 43
0.0
 10
-171.4308552952
 20
41.9179449871
 10
-171.4530503946
 20
41.9374093468
 10
-171.4687987384
 20
41.9571746875
 10
-171.4774951266
 20
41.9764814385
 10
-171.4788053619
 20
41.994587652
 10
-171.4777003505
 20
41.9998315227
  0
LWPOLYLINE
  5
3EA
330
3AC
100
AcDbEntity
  8
0
  6
Continuous
 62
     8
370
    25
100
AcDbPolyline
 90
        3
 70
   128
 43
0.0
 10
-171.32215741
 20
42.1418148996
 10
-171.3024751854
 20
42.1433256008
 10
-171.281362375
 20
42.1403295464
  0
LWPOLYLINE
  5
3EB
330
3AC
100
AcDbEntity
  8
0
  6
Continuous
 62
     8
370
    25
100
AcDbPolyline
 90
        6
 70
   128
 43
0.0
 10
-173.9255069985
 20
33.1254220221
 10
-173.9477020979
 20
33.1448863818
 10
-173.9634504418
 20
33.1646517226
 10
-173.97214683
 20
33.1839584736
 10
-173.9734570652
 20
33.202064687
 10
-173.9723520538
 20
33.2073085577
  0
LWPOLYLINE
  5
3EC
330
3AC
100
AcDbEntity
  8
0
  6
Continuous
 62
     8
370
    25
100
AcDbPolyline
 90
        3
 70
   128
 43
0.0
 10
-166.4924297569
 20
43.0475149749
 10
-166.4727475323
 20
43.0490256761
 10
-166.4516347219
 20
43.0460296217
  0
LINE
  5
3EF
330
3AC
100
AcDbEntity
  8
0
  6
Continuous
 62
     7
370
    25
100
AcDbLine
 10
175.1099049314
 20
-52.2384832534
 30
0.0
 11
171.4916753927
 21
-42.2623080476
 31
0.0
  0
LINE
  5
3F0
330
3AC
100
AcDbEntity
  8
0
  6
Continuous
 62
     7
370
    25
100
AcDbLine
 10
171.3525672401
 20
-42.1365711009
 30
0.0
 11
-166.4066593001
 21
43.0448693615
 31
0.0
  0
LINE
  5
3F1
330
3AC
100
AcDbEntity
  8
0
  6
Continuous
 62
     7
370
    25
100
AcDbLine
 10
-171.5265469275
 20
32.2576462294
 30
0.0
 11
153.6283663459
 21
-62.1903315222
 31
0.0
  0
LINE
  5
3F2
330
3AC
100
AcDbEntity
  8
0
  6
Continuous
 62
     7
370
    25
100
AcDbLine
 10
-171.4777003505
 20
41.9998315227
 30
0.0
 11
-173.9723520538
 21
33.2073085577
 31
0.0
  0
LINE
  5
3F3
330
3AC
100
AcDbEntity
  8
0
  6
Continuous
 62
     7
370
    25
100
AcDbLine
 10
-166.4924297569
 20
43.0475149749
 30
0.0
 11
-171.32215741
 21
42.1418148996
 31
0.0
  0
LINE
  5
3F4
330
3AC
100
AcDbEntity
  8
0
  6
Continuous
 62
     7
370
    25
100
AcDbLine
 10
-173.8381950194
 20
32.9613885975
 30
0.0
 11
-171.5290072237
 21
32.2583780256
 31
0.0
  0
LINE
  5
3F5
330
3AC
100
AcDbEntity
  8
0
  6
Continuous
 62
     7
370
    25
100
AcDbLine
 10
168.4702649504
 20
-53.3372497936
 30
0.0
 11
166.3283712451
 21
-43.2634954753
 31
0.0
  0
LINE
  5
3F6
330
3AC
100
AcDbEntity
  8
0
  6
Continuous
 62
     7
370
    25
100
AcDbLine
 10
166.6046347054
 20
-43.2043867159
 30
0.0
 11
168.7465284106
 21
-53.2781410342
 31
0.0
  0
LINE
  5
3F7
330
3AC
100
AcDbEntity
  8
0
  6
Continuous
 62
     7
370
    25
100
AcDbLine
 10
174.9917127085
 20
-52.1070058699
 30
0.0
 11
171.4343623585
 21
-42.2986866406
 31
0.0
  0
LINE
  5
3F8
330
3AC
100
AcDbEntity
  8
0
  6
Continuous
 62
     7
370
    25
100
AcDbLine
 10
168.7465284106
 20
-53.2781410342
 30
0.0
 11
174.9917127085
 21
-52.1070058699
 31
0.0
  0
LINE
  5
3F9
330
3AC
100
AcDbEntity
  8
0
  6
Continuous
 62
     7
370
    25
100
AcDbLine
 10
171.4343623585
 20
-42.2986866406
 30
0.0
 11
166.6046347054
 21
-43.2043867159
 31
0.0
  0
LINE
  5
3FA
330
3AC
100
AcDbEntity
  8
0
  6
Continuous
 62
     7
370
    25
100
AcDbLine
 10
-171.6163192029
 20
32.4224114503
 30
0.0
 11
168.4614983165
 21
-53.3437677962
 31
0.0
  0
LINE
  5
3FB
330
3AC
100
AcDbEntity
  8
0
  6
Continuous
 62
     7
370
    25
100
AcDbLine
 10
-173.9255069985
 20
33.1254220221
 30
0.0
 11
-171.6163192029
 21
32.4224114503
 31
0.0
  0
LINE
  5
3FC
330
3AC
100
AcDbEntity
  8
0
  6
Continuous
 62
     7
370
    25
100
AcDbLine
 10
-171.4308552952
 20
41.9179449871
 30
0.0
 11
-173.9255069985
 21
33.1254220221
 31
0.0
  0
LINE
  5
3FD
330
3AC
100
AcDbEntity
  8
0
  6
Continuous
 62
     7
370
    25
100
AcDbLine
 10
166.3283712451
 20
-43.2634954753
 30
0.0
 11
-171.4308552952
 21
41.9179449871
 31
0.0
  0
LINE
  5
3FE
330
3AC
100
AcDbEntity
  8
0
  6
Continuous
 62
     7
370
    25
100
AcDbLine
 10
175.1059295735
 20
-52.2862404198
 30
0.0
 11
168.6920263237
 21
-53.4890147941
 31
0.0
  0
LINE
  5
3FF
330
3AC
100
AcDbEntity
  8
0
  6
Continuous
 62
     7
370
    25
100
AcDbLine
 10
168.4884424845
 20
-53.4556782515
 30
0.0
 11
-171.5893750349
 21
32.310500995
 31
0.0
  0
LINE
  5
400
330
3AC
100
AcDbEntity
  8
0
  6
Continuous
 62
     7
370
    25
100
AcDbLine
 10
-171.5893750349
 20
32.310500995
 30
0.0
 11
153.5655382385
 21
-62.1374767566
 31
0.0
  0
LINE
  5
401
330
3AC
100
AcDbEntity
  8
0
  6
Continuous
 62
     7
370
    25
100
AcDbLine
 10
174.4883706098
 20
-52.7987539811
 30
0.0
 11
175.0878809142
 21
-52.3036486647
 31
0.0
  0
LINE
  5
402
330
3AC
100
AcDbEntity
  8
0
  6
Continuous
 62
     7
370
    25
100
AcDbLine
 10
154.7323705922
 20
-62.2799702774
 30
0.0
 11
159.1808392821
 21
-61.4457662153
 31
0.0
  0
LINE
  5
403
330
3AC
100
AcDbEntity
  8
0
  6
Continuous
 62
     7
370
    25
100
AcDbLine
 10
-171.281362375
 20
42.1403295464
 30
0.0
 11
166.4778641652
 21
-43.041110916
 31
0.0
  0
LINE
  5
404
330
3AC
100
AcDbEntity
  8
0
  6
Continuous
 62
     7
370
    25
100
AcDbLine
 10
166.4778641652
 20
-43.041110916
 30
0.0
 11
171.3075918184
 21
-42.1354108407
 31
0.0
  0
LINE
  5
405
330
3AC
100
AcDbEntity
  8
0
  6
Continuous
 62
     7
370
    25
100
AcDbLine
 10
171.3075918184
 20
-42.1354108407
 30
0.0
 11
-166.4516347219
 21
43.0460296217
 31
0.0
  0
LINE
  5
406
330
3AC
100
AcDbEntity
  8
0
  6
Continuous
 62
     7
370
    25
100
AcDbLine
 10
-166.4516347219
 20
43.0460296217
 30
0.0
 11
-171.281362375
 21
42.1403295464
 31
0.0
  0
ARC
  5
407
330
3AC
100
AcDbEntity
  8
0
  6
Continuous
 62
     7
370
    25
100
AcDbCircle
 10
171.30365945
 20
-42.3304989949
 30
0.0
 40
0.1999999999998634
100
AcDbArc
 50
19.9350524423
 51
75.845411218
  0
ARC
  5
408
330
3AC
100
AcDbEntity
  8
0
  6
Continuous
 62
     7
370
    25
100
AcDbCircle
 10
-171.2852947433
 20
41.9452413922
 30
0.0
 40
0.1999999999998952
100
AcDbArc
 50
100.6211008688
 51
164.1600764299
  0
ARC
  5
409
330
3AC
100
AcDbEntity
  8
0
  6
Continuous
 62
     7
370
    25
100
AcDbCircle
 10
-173.7799464467
 20
33.1527184273
 30
0.0
 40
0.2000000000001079
100
AcDbArc
 50
164.1600764299
 51
253.0676209121
  0
ARC
  5
40A
330
3AC
100
AcDbEntity
  8
0
  6
Continuous
 62
     7
370
    25
100
AcDbCircle
 10
-166.4555670902
 20
42.8509414675
 30
0.0
 40
0.2000000000002504
100
AcDbArc
 50
75.845411218
 51
100.6211008688
  0
ARC
  5
40B
330
3AC
100
AcDbEntity
  8
0
  6
Continuous
 62
     7
370
    25
100
AcDbCircle
 10
167.7655710398
 20
-49.3055460896
 30
0.0
 40
6.210629507161888
100
AcDbArc
 50
100.773520189
 51
103.3800797852
  0
ARC
  5
40C
330
3AC
100
AcDbEntity
  8
0
  6
Continuous
 62
     7
370
    25
100
AcDbCircle
 10
169.907464745
 20
-59.3793004079
 30
0.0
 40
6.210629507217008
100
AcDbArc
 50
100.773520189
 51
103.3800797852
  0
ARC
  5
40D
330
3AC
100
AcDbEntity
  8
0
  6
Continuous
 62
     7
370
    25
100
AcDbCircle
 10
168.5440032075
 20
-53.3382768416
 30
0.0
 40
0.2112646995052379
100
AcDbArc
 50
314.4793686704
 51
16.5377335444
  0
ARC
  5
40E
330
3AC
100
AcDbEntity
  8
0
  6
Continuous
 62
     7
370
    25
100
AcDbCircle
 10
168.6842210181
 20
-53.2625169478
 30
0.0
 40
0.2266322950228902
100
AcDbArc
 50
199.2538288932
 51
271.9736795598
  0
ARC
  5
40F
330
3AC
100
AcDbEntity
  8
0
  6
Continuous
 62
     7
370
    25
100
AcDbCircle
 10
168.6754437555
 20
-53.2690657147
 30
0.0
 40
0.2266121175571321
100
AcDbArc
 50
199.2473717898
 51
271.9729018793
  0
ARC
  5
410
330
3AC
100
AcDbEntity
  8
0
  6
Continuous
 62
     7
370
    25
100
AcDbCircle
 10
168.6702345011
 20
-53.3527101804
 30
0.0
 40
0.2089276452955084
100
AcDbArc
 50
177.5469142009
 51
209.5274717844
  0
ARC
  5
411
330
3AC
100
AcDbEntity
  8
0
  6
Continuous
 62
     7
370
    25
100
AcDbCircle
 10
168.6223133313
 20
-53.2974017867
 30
0.0
 40
0.2072989217673233
100
AcDbArc
 50
229.7753291931
 51
287.0935568438
  0
ARC
  5
412
330
3AC
100
AcDbEntity
  8
0
  6
Continuous
 62
     7
370
    25
100
AcDbCircle
 10
154.7046346279
 20
-62.1117911941
 30
0.0
 40
0.1704508368711736
100
AcDbArc
 50
220.6820546968
 51
279.3648796785
  0
ARC
  5
413
330
3AC
100
AcDbEntity
  8
0
  6
Continuous
 62
     7
370
    25
100
AcDbCircle
 10
150.7143835196
 20
-40.6725137058
 30
0.0
 40
21.89352570720222
100
AcDbArc
 50
280.1574112236
 51
324.2761813288
  0
ARC
  5
414
330
3AC
100
AcDbEntity
  8
0
  6
Continuous
 62
     7
370
    25
100
AcDbCircle
 10
150.8554592914
 20
-40.6527385908
 30
0.0
 40
21.97197286687071
100
AcDbArc
 50
280.1629354538
 51
324.2317245979
  0
ARC
  5
415
330
3AC
100
AcDbEntity
  8
0
  6
Continuous
 62
     7
370
    25
100
AcDbCircle
 10
-171.4075830184
 20
32.4134690661
 30
0.0
 40
0.2089276452915319
100
AcDbArc
 50
177.5469142005
 51
209.5274717846
  0
ARC
  5
416
330
3AC
100
AcDbEntity
  8
0
  6
Continuous
 62
     7
370
    25
100
AcDbCircle
 10
154.2449779731
 20
-60.1171082317
 30
0.0
 40
2.131555143412398
100
AcDbArc
 50
251.4124677198
 51
278.9169641021
  0
ARC
  5
417
330
3AC
100
AcDbEntity
  8
0
  6
Continuous
 62
     7
370
    25
100
AcDbCircle
 10
154.0602094643
 20
-34.5081531985
 30
0.0
 40
27.41998987552573
100
AcDbArc
 50
280.7630649906
 51
318.1599405946
  0
ARC
  5
418
330
3AC
100
AcDbEntity
  8
0
  6
Continuous
 62
     7
370
    25
100
AcDbCircle
 10
166.5521656479
 20
-43.2524972571
 30
0.0
 40
0.2240644896383978
100
AcDbArc
 50
109.3663779796
 51
182.8134971484
  0
ARC
  5
419
330
3AC
100
AcDbEntity
  8
0
  6
Continuous
 62
     7
370
    25
100
AcDbCircle
 10
166.4023828059
 20
-43.2305675964
 30
0.0
 40
0.2039393766542685
100
AcDbArc
 50
7.3757460302
 51
68.277188285
  0
ARC
  5
41A
330
3AC
100
AcDbEntity
  8
0
  6
Continuous
 62
     7
370
    25
100
AcDbCircle
 10
-171.2070608924
 20
41.9289432053
 30
0.0
 40
0.2240644896383975
100
AcDbArc
 50
109.3663779796
 51
182.8134971484
  0
ARC
  5
41B
330
3AC
100
AcDbEntity
  8
0
  6
Continuous
 62
     7
370
    25
100
AcDbCircle
 10
171.232110459
 20
-42.3248675211
 30
0.0
 40
0.2039393766542897
100
AcDbArc
 50
7.3757460302
 51
68.277188285
  0
ARC
  5
41C
330
3AC
100
AcDbEntity
  8
0
  6
Continuous
 62
     7
370
    25
100
AcDbCircle
 10
154.3831017773
 20
-60.0820590206
 30
0.0
 40
2.225489294106638
100
AcDbArc
 50
251.4533385809
 51
279.0293409502
  0
ARC
  5
41D
330
3AC
100
AcDbEntity
  8
0
  6
Continuous
 62
     8
370
    25
100
AcDbCircle
 10
171.4030135824
 20
-42.1859613785
 30
0.0
 40
0.117003121687711
100
AcDbArc
 50
285.541192744
 51
319.2682647003
  0
ARC
  5
41E
330
3AC
100
AcDbEntity
  8
0
  6
Continuous
 62
     8
370
    25
100
AcDbCircle
 10
153.6606482134
 20
-62.0881892227
 30
0.0
 40
0.1071222120529692
100
AcDbArc
 50
207.3939244447
 51
252.4609644072
  0
ARC
  5
41F
330
3AC
100
AcDbEntity
  8
0
  6
Continuous
 62
     8
370
    25
100
AcDbCircle
 10
-171.4942650601
 20
32.3597885289
 30
0.0
 40
0.1071222120548468
100
AcDbArc
 50
207.3939244451
 51
252.4609644068
  0
ARC
  5
420
330
3AC
100
AcDbEntity
  8
0
  6
Continuous
 62
     8
370
    25
100
AcDbCircle
 10
-173.7730618674
 20
33.1013117717
 30
0.0
 40
0.154339956535028
100
AcDbArc
 50
171.0127181153
 51
245.0383874632
  0
ARC
  5
421
330
3AC
100
AcDbEntity
  8
0
  6
Continuous
 62
     8
370
    25
100
AcDbCircle
 10
-171.4638740717
 20
32.3983011999
 30
0.0
 40
0.1543399565350898
100
AcDbArc
 50
171.0127181153
 51
245.0383874632
  0
VIEWPORT
  5
434
330
3AC
100
AcDbEntity
  8
0
100
AcDbViewport
 10
0.0
 20
0.0
 30
0.0
 40
205.6
 41
156.0
 68
     1
 69
     1
 12
0.0199765585
 22
-13.4857751564
 13
0.0
 23
0.0
 14
10.0
 24
10.0
 15
10.0
 25
10.0
 16
0.0
 26
0.0
 36
1.0
 17
0.0
 27
0.0
 37
0.0
 42
50.0
 43
0.0
 44
0.0
 45
386.8745690718
 50
0.0
 51
0.0
 72
   100
 90
   557152
  1

281
     0
 71
     1
 74
     0
110
0.0
120
0.0
130
0.0
111
1.0
121
0.0
131
0.0
112
0.0
122
1.0
132
0.0
 79
     0
146
0.0
  0
ENDBLK
  5
3AF
330
3AC
100
AcDbEntity
  8
0
100
AcDbBlockEnd
  0
ENDSEC
  0
SECTION
  2
ENTITIES
  0
LWPOLYLINE
  5
88
330
1F
100
AcDbEntity
  8
0
  6
Continuous
 62
     7
370
    25
100
AcDbPolyline
 90
        9
 70
   128
 43
0.0
 10
249.8774024665
 20
-10.0872170684
 10
249.8758333033
 20
-10.0883319107
 10
249.8742641225
 20
-10.0894467282
 10
249.8726949242
 20
-10.090561521
 10
249.8711257082
 20
-10.091676289
 10
249.8695564747
 20
-10.0927910323
 10
249.8679872235
 20
-10.0939057508
 10
249.8664179548
 20
-10.0950204445
 10
249.8648486684
 20
-10.0961351135
  0
LWPOLYLINE
  5
8A
330
1F
100
AcDbEntity
  8
0
  6
Continuous
 62
     7
370
    25
100
AcDbPolyline
 90
        9
 70
   128
 43
0.0
 10
249.7490327142
 20
-9.9330809361
 10
249.7505994275
 20
-9.9319680948
 10
249.7521661232
 20
-9.9308552287
 10
249.7537328014
 20
-9.929742338
 10
249.755299462
 20
-9.9286294225
 10
249.756866105
 20
-9.9275164823
 10
249.7584327304
 20
-9.9264035174
 10
249.7599993383
 20
-9.9252905277
 10
249.7615659287
 20
-9.9241775133
  0
LWPOLYLINE
  5
8C
330
1F
100
AcDbEntity
  8
0
  6
Continuous
 62
     7
370
    25
100
AcDbPolyline
 90
        9
 70
   128
 43
0.0
 10
249.8648486684
 20
-10.0961351135
 10
249.8552383121
 20
-10.1008192062
 10
249.8437732253
 20
-10.1025739875
 10
249.8306536296
 20
-10.1013688126
 10
249.8161086401
 20
-10.097224728
 10
249.8003922645
 20
-10.0902141044
 10
249.783778967
 20
-10.0804593725
 10
249.7665588754
 20
-10.0681308847
 10
249.7490327142
 20
-10.0534439407
  0
CIRCLE
  5
91
330
1F
100
AcDbEntity
  8
0
  6
Continuous
 62
     7
370
    25
100
AcDbCircle
 10
-160.0
 20
-5.0
 30
0.0
 40
1.75
  0
CIRCLE
  5
92
330
1F
100
AcDbEntity
  8
0
  6
Continuous
 62
     7
370
    25
100
AcDbCircle
 10
160.0
 20
-5.0
 30
0.0
 40
1.750000000000057
  0
LWPOLYLINE
  5
93
330
1F
100
AcDbEntity
  8
0
  6
Continuous
 62
     7
370
    25
100
AcDbPolyline
 90
        9
 70
   128
 43
0.0
 10
216.6433372415
 20
-26.6597662548
 10
216.652319553
 20
-26.6766447071
 10
216.6611724082
 20
-26.6915451852
 10
216.6697682164
 20
-26.7042529379
 10
216.6779830916
 20
-26.7145848164
 10
216.6856986382
 20
-26.722391914
 10
216.6928036568
 20
-26.7275617119
 10
216.6991957473
 20
-26.730019701
 10
216.7047827846
 20
-26.7297304559
  0
LINE
  5
9B
330
1F
100
AcDbEntity
  8
0
  6
Continuous
 62
     7
370
    25
100
AcDbLine
 10
249.7490327142
 20
-10.0534439407
 30
0.0
 11
-246.3494876807
 21
-10.0534439407
 31
0.0
  0
LINE
  5
9C
330
1F
100
AcDbEntity
  8
0
  6
Continuous
 62
     7
370
    25
100
AcDbLine
 10
-246.3494876807
 20
-10.0534439407
 30
0.0
 11
-246.3494876807
 21
-9.9330809361
 31
0.0
  0
LINE
  5
9D
330
1F
100
AcDbEntity
  8
0
  6
Continuous
 62
     7
370
    25
100
AcDbLine
 10
-246.3494876807
 20
-9.9330809361
 30
0.0
 11
249.7490327142
 21
-9.9330809361
 31
0.0
  0
LINE
  5
9E
330
1F
100
AcDbEntity
  8
0
  6
Continuous
 62
     7
370
    25
100
AcDbLine
 10
249.7490327142
 20
-10.0534439407
 30
0.0
 11
249.7490327142
 21
-9.9330809361
 31
0.0
  0
LINE
  5
9F
330
1F
100
AcDbEntity
  8
0
  6
Continuous
 62
     7
370
    25
100
AcDbLine
 10
-246.3567812021
 20
-10.1329479032
 30
0.0
 11
-246.3494876807
 21
-9.9330809361
 31
0.0
  0
LINE
  5
A0
330
1F
100
AcDbEntity
  8
0
  6
Continuous
 62
     7
370
    25
100
AcDbLine
 10
246.358103799
 20
-0.2
 30
0.0
 11
-246.358103799
 21
-0.2
 31
0.0
  0
LINE
  5
A1
330
1F
100
AcDbEntity
  8
0
  6
Continuous
 62
     7
370
    25
100
AcDbLine
 10
-246.358103799
 20
-0.2
 30
0.0
 11
-246.358103799
 21
0.0
 31
0.0
  0
LINE
  5
A2
330
1F
100
AcDbEntity
  8
0
  6
Continuous
 62
     7
370
    25
100
AcDbLine
 10
-246.358103799
 20
0.0
 30
0.0
 11
246.358103799
 21
0.0
 31
0.0
  0
LINE
  5
A3
330
1F
100
AcDbEntity
  8
0
  6
Continuous
 62
     7
370
    25
100
AcDbLine
 10
246.358103799
 20
-0.2
 30
0.0
 11
246.358103799
 21
0.0
 31
0.0
  0
LINE
  5
A4
330
1F
100
AcDbEntity
  8
0
  6
Continuous
 62
     7
370
    25
100
AcDbLine
 10
-246.358103799
 20
-0.2
 30
0.0
 11
-246.5468754703
 21
-0.1339299151
 31
0.0
  0
LINE
  5
A5
330
1F
100
AcDbEntity
  8
0
  6
Continuous
 62
     7
370
    25
100
AcDbLine
 10
-246.358103799
 20
-0.2
 30
0.0
 11
-249.7216128117
 21
-9.8100257504
 31
0.0
  0
LINE
  5
A6
330
1F
100
AcDbEntity
  8
0
  6
Continuous
 62
     7
370
    25
100
AcDbLine
 10
-249.7216128117
 20
-9.8100257504
 30
0.0
 11
-249.9103844829
 21
-9.7439556655
 31
0.0
  0
LINE
  5
A7
330
1F
100
AcDbEntity
  8
0
  6
Continuous
 62
     7
370
    25
100
AcDbLine
 10
-249.9103844829
 20
-9.7439556655
 30
0.0
 11
-246.5468754703
 21
-0.1339299151
 31
0.0
  0
LINE
  5
A8
330
1F
100
AcDbEntity
  8
0
  6
Continuous
 62
     7
370
    25
100
AcDbLine
 10
249.7615659287
 20
-9.9241775133
 30
0.0
 11
249.9503375999
 21
-9.8581074284
 31
0.0
  0
LINE
  5
A9
330
1F
100
AcDbEntity
  8
0
  6
Continuous
 62
     7
370
    25
100
AcDbLine
 10
249.8774024665
 20
-10.0872170684
 30
0.0
 11
249.7615659287
 21
-9.9241775133
 31
0.0
  0
LINE
  5
AA
330
1F
100
AcDbEntity
  8
0
  6
Continuous
 62
     7
370
    25
100
AcDbLine
 10
249.7615659287
 20
-9.9241775133
 30
0.0
 11
246.358103799
 21
-0.2
 31
0.0
  0
LINE
  5
AB
330
1F
100
AcDbEntity
  8
0
  6
Continuous
 62
     7
370
    25
100
AcDbLine
 10
246.358103799
 20
-0.2
 30
0.0
 11
246.5468754703
 21
-0.1339299151
 31
0.0
  0
LINE
  5
AC
330
1F
100
AcDbEntity
  8
0
  6
Continuous
 62
     7
370
    25
100
AcDbLine
 10
246.5468754703
 20
-0.1339299151
 30
0.0
 11
249.9503375999
 21
-9.8581074284
 31
0.0
  0
LINE
  5
AD
330
1F
100
AcDbEntity
  8
0
  6
Continuous
 62
     7
370
    25
100
AcDbLine
 10
249.8648486684
 20
-10.0961351135
 30
0.0
 11
249.7490327142
 21
-9.9330809361
 31
0.0
  0
LINE
  5
AE
330
1F
100
AcDbEntity
  8
0
  6
Continuous
 62
     7
370
    25
100
AcDbLine
 10
214.9863061736
 20
-26.9682244909
 30
0.0
 11
-249.728906333
 21
-10.0098927176
 31
0.0
  0
LINE
  5
AF
330
1F
100
AcDbEntity
  8
0
  6
Continuous
 62
     7
370
    25
100
AcDbLine
 10
-249.728906333
 20
-10.0098927176
 30
0.0
 11
-249.7216128117
 21
-9.8100257504
 31
0.0
  0
LINE
  5
B0
330
1F
100
AcDbEntity
  8
0
  6
Continuous
 62
     7
370
    25
100
AcDbLine
 10
-249.7216128117
 20
-9.8100257504
 30
0.0
 11
-246.3494876807
 21
-9.9330809361
 31
0.0
  0
LINE
  5
B1
330
1F
100
AcDbEntity
  8
0
  6
Continuous
 62
     7
370
    25
100
AcDbLine
 10
-246.3494876807
 20
-10.0534439407
 30
0.0
 11
214.9935996949
 21
-26.8887205284
 31
0.0
  0
ARC
  5
B2
330
1F
100
AcDbEntity
  8
0
  6
Continuous
 62
     7
370
    25
100
AcDbCircle
 10
-246.8478202602
 20
-10.047814516
 30
0.0
 40
0.4983643748611628
100
AcDbArc
 50
350.1641760761
 51
359.3527845241
  0
ARC
  5
B3
330
1F
100
AcDbEntity
  8
0
  6
Continuous
 62
     7
370
    25
100
AcDbCircle
 10
-246.358103799
 20
-0.2
 30
0.0
 40
0.1999999999999472
100
AcDbArc
 50
90.0
 51
160.7099537808
  0
ARC
  5
B4
330
1F
100
AcDbEntity
  8
0
  6
Continuous
 62
     7
370
    25
100
AcDbCircle
 10
249.7615659287
 20
-9.9241775133
 30
0.0
 40
0.1999999999999907
100
AcDbArc
 50
305.3930778656
 51
19.2900462192
  0
ARC
  5
B5
330
1F
100
AcDbEntity
  8
0
  6
Continuous
 62
     7
370
    25
100
AcDbCircle
 10
246.358103799
 20
-0.2
 30
0.0
 40
0.199999999999992
100
AcDbArc
 50
19.2900462192
 51
90.0
  0
ARC
  5
B6
330
1F
100
AcDbEntity
  8
0
  6
Continuous
 62
     7
370
    25
100
AcDbCircle
 10
-249.7216128117
 20
-9.8100257504
 30
0.0
 40
0.2000000000000198
100
AcDbArc
 50
160.7099537808
 51
267.9100966381
  0
ARC
  5
B7
330
1F
100
AcDbEntity
  8
0
  6
Continuous
 62
     7
370
    25
100
AcDbCircle
 10
179.2296522241
 20
89.2289015105
 30
0.0
 40
121.7783525221816
100
AcDbArc
 50
287.8922389118
 51
305.3858446311
  0
ARC
  5
B8
330
1F
100
AcDbEntity
  8
0
  6
Continuous
 62
     7
370
    25
100
AcDbCircle
 10
179.2296522241
 20
89.3492645152
 30
0.0
 40
121.9783525221813
100
AcDbArc
 50
287.8922389118
 51
305.3858446311
  0
ARC
  5
B9
330
1F
100
AcDbEntity
  8
0
  6
Continuous
 62
     7
370
    25
100
AcDbCircle
 10
215.1686442081
 20
-22.0919133175
 30
0.0
 40
4.80000000000015
100
AcDbArc
 50
267.9100966381
 51
287.8922389118
  0
ARC
  5
BA
330
1F
100
AcDbEntity
  8
0
  6
Continuous
 62
     7
370
    25
100
AcDbCircle
 10
214.4952671156
 20
-26.8830911037
 30
0.0
 40
0.498364374806869
100
AcDbArc
 50
350.1641760754
 51
359.3527845245
  0
ARC
  5
BB
330
1F
100
AcDbEntity
  8
0
  6
Continuous
 62
     7
370
    25
100
AcDbCircle
 10
215.1686442081
 20
-21.9715503129
 30
0.0
 40
4.999999999999805
100
AcDbArc
 50
267.9100966381
 51
287.8922389118
  0
LWPOLYLINE
  5
D7
330
1B
100
AcDbEntity
 67
     1
  8
0
  6
Continuous
 62
     7
370
    25
100
AcDbPolyline
 90
        9
 70
   128
 43
0.0
 10
249.7997740502
 20
-5.4988240696
 10
249.8328439245
 20
-5.4916451235
 10
249.8619837987
 20
-5.4762126327
 10
249.8861641076
 20
-5.4530718555
 10
249.9045305163
 20
-5.4230403982
 10
249.9164341056
 20
-5.3871793275
 10
249.9214543
 20
-5.3467556809
 10
249.9194137267
 20
-5.3031977004
 10
249.9103844829
 20
-5.2580443695
  0
SPLINE
  5
D9
330
1B
100
AcDbEntity
 67
     1
  8
0
  6
Continuous
 62
     7
370
    25
100
AcDbSpline
210
0.0
220
0.0
230
1.0
 70
     8
 71
     3
 72
     8
 73
     4
 74
     0
 42
0.000000001
 43
0.00000001
 40
0.0
 40
0.0
 40
0.0
 40
0.0
 40
0.0000453377850437
 40
0.0000453377850437
 40
0.0000453377850437
 40
0.0000453377850437
 10
-249.8413256270231
 20
-5.522567827752872
 30
0.0
 10
-249.853566785714
 20
-5.520829741249969
 30
0.0
 10
-249.8657194495013
 20
-5.51748998452468
 30
0.0
 10
-249.8774024665147
 20
-5.5126943322536
 30
0.0
  0
LWPOLYLINE
  5
E6
330
1B
100
AcDbEntity
 67
     1
  8
0
  6
Continuous
 62
     7
370
    25
100
AcDbPolyline
 90
        5
 70
   128
 43
0.0
 10
241.6675554398
 20
-5.5
 10
242.2571752655
 20
-5.5015170385
 10
242.4908281336
 20
-5.5060280181
 10
242.3623323706
 20
-5.5134135934
 10
242.2284761748
 20
-5.5167252698
  0
SPLINE
  5
E8
330
1B
100
AcDbEntity
 67
     1
  8
0
  6
Continuous
 62
     7
370
    25
100
AcDbSpline
210
0.0
220
0.0
230
1.0
 70
     8
 71
     3
 72
    17
 73
    13
 74
     0
 42
0.000000001
 43
0.00000001
 40
0.0
 40
0.0
 40
0.0
 40
0.0
 40
0.3111048666250898
 40
0.5843666733842918
 40
0.715663581842677
 40
0.8003320279480233
 40
0.8391901796278721
 40
0.8716177847698502
 40
0.8957473615165321
 40
0.919917414784929
 40
0.9518558119941376
 40
1.0
 40
1.0
 40
1.0
 40
1.0
 10
-249.2665938038182
 20
-5.593280571620359
 30
0.0
 10
-249.3149033951073
 20
-5.584531713735063
 30
0.0
 10
-249.4056461580231
 20
-5.568098216458712
 30
0.0
 10
-249.5005122604476
 20
-5.544843684670711
 30
0.0
 10
-249.5545331183993
 20
-5.527535981785323
 30
0.0
 10
-249.5746298365189
 20
-5.517637520591311
 30
0.0
 10
-249.5792493968956
 20
-5.511198977034387
 30
0.0
 10
-249.5767289473632
 20
-5.507206719844368
 30
0.0
 10
-249.5687712829387
 20
-5.504172897908298
 30
0.0
 10
-249.555916339121
 20
-5.501911237665595
 30
0.0
 10
-249.5350954279226
 20
-5.500249599487875
 30
0.0
 10
-249.5180950470909
 20
-5.50009371494243
 30
0.0
 10
-249.5078747285444
 20
-5.500000000000001
 30
0.0
  0
LINE
  5
F0
330
1B
100
AcDbEntity
 67
     1
  8
0
  6
Continuous
 62
     7
370
    25
100
AcDbLine
 10
249.9216128117
 20
-5.3377535057
 30
0.0
 11
249.9216128117
 21
3.3
 31
0.0
  0
LINE
  5
F1
330
1B
100
AcDbEntity
 67
     1
  8
0
  6
Continuous
 62
     7
370
    25
100
AcDbLine
 10
-249.9615659287
 20
3.3
 30
0.0
 11
-249.9615659287
 21
-5.3605838582
 31
0.0
  0
LINE
  5
F2
330
1B
100
AcDbEntity
 67
     1
  8
0
  6
Continuous
 62
     7
370
    25
100
AcDbLine
 10
-214.9891615728
 20
-15.6651628606
 30
0.0
 11
242.2284761748
 21
-5.5167252698
 31
0.0
  0
LINE
  5
F3
330
1B
100
AcDbEntity
 67
     1
  8
0
  6
Continuous
 62
     7
370
    25
100
AcDbLine
 10
-246.5468754703
 20
-3.3360392195
 30
0.0
 11
246.5468754703
 21
-3.3360392195
 31
0.0
  0
LINE
  5
F4
330
1B
100
AcDbEntity
 67
     1
  8
0
  6
Continuous
 62
     7
370
    25
100
AcDbLine
 10
246.358103799
 20
-3.5321553546
 30
0.0
 11
246.358103799
 21
3.5
 31
0.0
  0
LINE
  5
F5
330
1B
100
AcDbEntity
 67
     1
  8
0
  6
Continuous
 62
     7
370
    25
100
AcDbLine
 10
249.9216128117
 20
3.3
 30
0.0
 11
-249.9615659287
 21
3.3
 31
0.0
  0
LINE
  5
F6
330
1B
100
AcDbEntity
 67
     1
  8
0
  6
Continuous
 62
     7
370
    25
100
AcDbLine
 10
246.5468754703
 20
3.3
 30
0.0
 11
246.5468754703
 21
-3.3360392195
 31
0.0
  0
LINE
  5
F7
330
1B
100
AcDbEntity
 67
     1
  8
0
  6
Continuous
 62
     7
370
    25
100
AcDbLine
 10
246.358103799
 20
-3.5321553546
 30
0.0
 11
-246.358103799
 21
-3.5321553546
 31
0.0
  0
LINE
  5
F8
330
1B
100
AcDbEntity
 67
     1
  8
0
  6
Continuous
 62
     7
370
    25
100
AcDbLine
 10
-246.358103799
 20
3.5
 30
0.0
 11
-246.358103799
 21
-3.5321553546
 31
0.0
  0
LINE
  5
F9
330
1B
100
AcDbEntity
 67
     1
  8
0
  6
Continuous
 62
     7
370
    25
100
AcDbLine
 10
-246.5468754703
 20
-3.3360392195
 30
0.0
 11
-246.5468754703
 21
3.3
 31
0.0
  0
LINE
  5
FA
330
1B
100
AcDbEntity
 67
     1
  8
0
  6
Continuous
 62
     7
370
    25
100
AcDbLine
 10
-249.7615659287
 20
3.5
 30
0.0
 11
249.7216128117
 21
3.5
 31
0.0
  0
LINE
  5
FB
330
1B
100
AcDbEntity
 67
     1
  8
0
  6
Continuous
 62
     7
370
    25
100
AcDbLine
 10
249.7997740502
 20
-5.4988240696
 30
0.0
 11
246.358103799
 21
-3.5321553546
 31
0.0
  0
LINE
  5
FC
330
1B
100
AcDbEntity
 67
     1
  8
0
  6
Continuous
 62
     7
370
    25
100
AcDbLine
 10
246.5468754703
 20
-3.3360392195
 30
0.0
 11
249.9103844829
 21
-5.2580443695
 31
0.0
  0
LINE
  5
FD
330
1B
100
AcDbEntity
 67
     1
  8
0
  6
Continuous
 62
     7
370
    25
100
AcDbLine
 10
-246.358103799
 20
-3.5321553546
 30
0.0
 11
-249.841325627
 21
-5.5225678278
 31
0.0
  0
LINE
  5
FE
330
1B
100
AcDbEntity
 67
     1
  8
0
  6
Continuous
 62
     7
370
    25
100
AcDbLine
 10
-249.9503375999
 20
-5.2808747221
 30
0.0
 11
-246.5468754703
 21
-3.3360392195
 31
0.0
  0
LINE
  5
FF
330
1B
100
AcDbEntity
 67
     1
  8
0
  6
Continuous
 62
     7
370
    25
100
AcDbLine
 10
249.9103844829
 20
-5.2580443695
 30
0.0
 11
249.9103844829
 21
3.3
 31
0.0
  0
LINE
  5
100
330
1B
100
AcDbEntity
 67
     1
  8
0
  6
Continuous
 62
     7
370
    25
100
AcDbLine
 10
-249.9503375999
 20
3.3
 30
0.0
 11
-249.9503375999
 21
-5.2808747221
 31
0.0
  0
LINE
  5
101
330
1B
100
AcDbEntity
 67
     1
  8
0
  6
Continuous
 62
     7
370
    25
100
AcDbLine
 10
249.728906333
 20
-5.5019785435
 30
0.0
 11
239.5438851106
 21
-5.576312658
 31
0.0
  0
LINE
  5
102
330
1B
100
AcDbEntity
 67
     1
  8
0
  6
Continuous
 62
     7
370
    25
100
AcDbLine
 10
-249.5078747285
 20
-5.5
 30
0.0
 11
241.6675554398
 21
-5.5
 31
0.0
  0
LINE
  5
103
330
1B
100
AcDbEntity
 67
     1
  8
0
  6
Continuous
 62
     7
370
    25
100
AcDbLine
 10
-249.2657757053
 20
-5.6037896208
 30
0.0
 11
-249.841325627
 21
-5.5225678278
 31
0.0
  0
LINE
  5
104
330
1B
100
AcDbEntity
 67
     1
  8
0
  6
Continuous
 62
     7
370
    25
100
AcDbLine
 10
-214.9935996949
 20
-15.6360858603
 30
0.0
 11
241.6675554398
 21
-5.5
 31
0.0
  0
ARC
  5
105
330
1B
100
AcDbEntity
 67
     1
  8
0
  6
Continuous
 62
     7
370
    25
100
AcDbCircle
 10
249.7216128117
 20
3.3
 30
0.0
 40
0.1999999999999971
100
AcDbArc
 50
0.0
 51
90.0
  0
ARC
  5
106
330
1B
100
AcDbEntity
 67
     1
  8
0
  6
Continuous
 62
     7
370
    25
100
AcDbCircle
 10
-249.7615659287
 20
3.3
 30
0.0
 40
0.1999999999999891
100
AcDbArc
 50
90.0
 51
180.0
  0
ARC
  5
107
330
1B
100
AcDbEntity
 67
     1
  8
0
  6
Continuous
 62
     7
370
    25
100
AcDbCircle
 10
246.33868054
 20
-3.3245502934
 30
0.0
 40
0.2085116889021415
100
AcDbArc
 50
275.3449594857
 51
356.8414216405
  0
ARC
  5
108
330
1B
100
AcDbEntity
 67
     1
  8
0
  6
Continuous
 62
     7
370
    25
100
AcDbCircle
 10
-246.33868054
 20
-3.3245502934
 30
0.0
 40
0.208511688902065
100
AcDbArc
 50
183.1585783595
 51
264.6550405143
  0
ARC
  5
109
330
1B
100
AcDbEntity
 67
     1
  8
0
  6
Continuous
 62
     7
370
    25
100
AcDbCircle
 10
-246.3523226666
 20
3.3054565702
 30
0.0
 40
0.1946293081416783
100
AcDbArc
 50
91.7021239965
 51
181.6065381607
  0
ARC
  5
10A
330
1B
100
AcDbEntity
 67
     1
  8
0
  6
Continuous
 62
     7
370
    25
100
AcDbCircle
 10
246.3523226666
 20
3.3054565702
 30
0.0
 40
0.1946293081417532
100
AcDbArc
 50
358.3934618393
 51
88.2978760035
  0
ARC
  5
10B
330
1B
100
AcDbEntity
 67
     1
  8
0
  6
Continuous
 62
     7
370
    25
100
AcDbCircle
 10
-249.7748145893
 20
-5.3530348748
 30
0.0
 40
0.1897772770951979
100
AcDbArc
 50
157.6516982104
 51
237.2775594881
  0
ARC
  5
10C
330
1B
100
AcDbEntity
 67
     1
  8
0
  6
Continuous
 62
     7
370
    25
100
AcDbCircle
 10
-249.7557847962
 20
3.3054565702
 30
0.0
 40
0.1946293081416707
100
AcDbArc
 50
91.7021239965
 51
181.6065381607
  0
ARC
  5
10D
330
1B
100
AcDbEntity
 67
     1
  8
0
  6
Continuous
 62
     7
370
    25
100
AcDbCircle
 10
249.7158316792
 20
3.3054565702
 30
0.0
 40
0.1946293081417554
100
AcDbArc
 50
358.3934618393
 51
88.2978760035
  0
ARC
  5
10E
330
1B
100
AcDbEntity
 67
     1
  8
0
  6
Continuous
 62
     7
370
    25
100
AcDbCircle
 10
249.7232699245
 20
-4.5777257285
 30
0.0
 40
0.9242700012002583
100
AcDbArc
 50
270.3494048489
 51
274.747946253
  0
ARC
  5
10F
330
1B
100
AcDbEntity
 67
     1
  8
0
  6
Continuous
 62
     7
370
    25
100
AcDbCircle
 10
-185.9338689369
 20
144.4799297819
 30
0.0
 40
162.8976167712796
100
AcDbArc
 50
247.0287173649
 51
259.1335708854
  0
ARC
  5
110
330
1B
100
AcDbEntity
 67
     1
  8
0
  6
Continuous
 62
     7
370
    25
100
AcDbCircle
 10
-214.9459006827
 20
-15.6436825997
 30
0.0
 40
0.0483001679375781
100
AcDbArc
 50
170.9508402482
 51
206.4057042342
  0
ARC
  5
111
330
1B
100
AcDbEntity
 67
     1
  8
0
  6
Continuous
 62
     7
370
    25
100
AcDbCircle
 10
-215.1736853787
 20
-7.9281016657
 30
0.0
 40
7.710087625741042
100
AcDbArc
 50
259.0113720665
 51
271.338387908
  0
VIEWPORT
  5
422
330
1B
100
AcDbEntity
 67
     1
  8
0
100
AcDbViewport
 10
0.0
 20
0.0
 30
0.0
 40
205.6
 41
156.0
 68
     1
 69
     1
 12
0.0199765585
 22
-13.4857751564
 13
0.0
 23
0.0
 14
10.0
 24
10.0
 15
10.0
 25
10.0
 16
0.0
 26
0.0
 36
1.0
 17
0.0
 27
0.0
 37
0.0
 42
50.0
 43
0.0
 44
0.0
 45
386.8745690718
 50
0.0
 51
0.0
 72
   100
 90
   557152
  1

281
     0
 71
     1
 74
     0
110
0.0
120
0.0
130
0.0
111
1.0
121
0.0
131
0.0
112
0.0
122
1.0
132
0.0
 79
     0
146
0.0
  0
ENDSEC
  0
SECTION
  2
OBJECTS
  0
DICTIONARY
  5
C
330
0
100
AcDbDictionary
281
     1
  3
ACAD_GROUP
350
D
  3
ACAD_LAYOUT
350
1A
  3
ACAD_MLINESTYLE
350
17
  3
ACAD_PLOTSETTINGS
350
19
  3
ACAD_PLOTSTYLENAME
350
E
  3
ACAD_SCALELIST
350
47
  0
DICTIONARY
  5
D
102
{ACAD_REACTORS
330
C
102
}
330
C
100
AcDbDictionary
281
     1
  0
DICTIONARY
  5
1A
102
{ACAD_REACTORS
330
C
102
}
330
C
100
AcDbDictionary
281
     1
  3
_Bottom
350
1D2
  3
_Dimetric
350
2ED
  3
_Front
350
154
  3
_Isometric
350
22C
  3
_Left
350
18D
  3
_Right
350
26
  3
_Top
350
1E
  3
_Trimetric
350
28D
  3
ISO PERSP
350
34B
  3
ISO PERSP BACK
350
3AD
  3
Model
350
22
  0
DICTIONARY
  5
17
102
{ACAD_REACTORS
330
C
102
}
330
C
100
AcDbDictionary
281
     1
  3
Standard
350
18
  0
DICTIONARY
  5
19
102
{ACAD_REACTORS
330
C
102
}
330
C
100
AcDbDictionary
281
     1
  0
ACDBDICTIONARYWDFLT
  5
E
102
{ACAD_REACTORS
330
C
102
}
330
C
100
AcDbDictionary
281
     1
  3
Normal
350
F
100
AcDbDictionaryWithDefault
340
F
  0
DICTIONARY
  5
47
102
{ACAD_REACTORS
330
C
102
}
330
C
100
AcDbDictionary
281
     1
  3
A0
350
48
  3
A1
350
49
  3
A2
350
4A
  3
A3
350
4B
  3
A4
350
4C
  3
A5
350
4D
  3
A6
350
4E
  3
A7
350
4F
  3
A8
350
50
  3
A9
350
51
  3
B0
350
52
  3
B1
350
53
  3
B2
350
54
  3
B3
350
55
  3
B4
350
56
  3
B5
350
57
  3
B6
350
58
  3
B7
350
59
  3
B8
350
5A
  3
B9
350
5B
  3
C0
350
5C
  3
C1
350
5D
  3
C2
350
5E
  3
C3
350
5F
  3
C4
350
60
  3
C5
350
61
  3
C6
350
62
  3
C7
350
63
  3
C8
350
64
  3
C9
350
65
  3
D0
350
66
  3
D1
350
67
  3
D2
350
68
  0
LAYOUT
  5
1D2
102
{ACAD_REACTORS
330
1A
102
}
330
1A
100
AcDbPlotSettings
  1

  2
none_device
  4
ISO_A4_(210.00_x_297.00_MM)
  6

 40
7.5
 41
20.0
 42
7.5
 43
20.0
 44
210.0
 45
297.0
 46
0.0
 47
0.0
 48
0.0
 49
0.0
140
0.0
141
0.0
142
1.0
143
1.9450825085
 70
   688
 72
     1
 73
     1
 74
     1
  7

 75
     0
147
0.5141170082
148
249.9645918664
149
15.6651628606
100
AcDbLayout
  1
_Bottom
 70
     1
 71
     5
 10
0.0
 20
0.0
 11
0.0
 21
0.0
 12
0.0
 22
0.0
 32
0.0
 14
0.0
 24
0.0
 34
0.0
 15
0.0
 25
0.0
 35
0.0
146
0.0
 13
0.0
 23
0.0
 33
0.0
 16
1.0
 26
0.0
 36
0.0
 17
0.0
 27
1.0
 37
0.0
 76
     0
330
1D1
331
42A
  0
LAYOUT
  5
2ED
102
{ACAD_REACTORS
330
1A
102
}
330
1A
100
AcDbPlotSettings
  1

  2
none_device
  4
ISO_A4_(210.00_x_297.00_MM)
  6

 40
7.5
 41
20.0
 42
7.5
 43
20.0
 44
210.0
 45
297.0
 46
0.0
 47
0.0
 48
0.0
 49
0.0
140
0.0
141
0.0
142
1.0
143
1.9450825085
 70
   688
 72
     1
 73
     1
 74
     1
  7

 75
     0
147
0.5141170082
148
249.9645918664
149
15.6651628606
100
AcDbLayout
  1
_Dimetric
 70
     1
 71
     8
 10
0.0
 20
0.0
 11
0.0
 21
0.0
 12
0.0
 22
0.0
 32
0.0
 14
0.0
 24
0.0
 34
0.0
 15
0.0
 25
0.0
 35
0.0
146
0.0
 13
0.0
 23
0.0
 33
0.0
 16
1.0
 26
0.0
 36
0.0
 17
0.0
 27
1.0
 37
0.0
 76
     0
330
2EC
331
430
  0
LAYOUT
  5
154
102
{ACAD_REACTORS
330
1A
102
}
330
1A
100
AcDbPlotSettings
  1

  2
none_device
  4
ISO_A4_(210.00_x_297.00_MM)
  6

 40
7.5
 41
20.0
 42
7.5
 43
20.0
 44
210.0
 45
297.0
 46
0.0
 47
0.0
 48
0.0
 49
0.0
140
0.0
141
0.0
142
1.0
143
1.9450825085
 70
   688
 72
     1
 73
     1
 74
     1
  7

 75
     0
147
0.5141170082
148
249.9645918664
149
15.6651628606
100
AcDbLayout
  1
_Front
 70
     1
 71
     3
 10
0.0
 20
0.0
 11
0.0
 21
0.0
 12
0.0
 22
0.0
 32
0.0
 14
0.0
 24
0.0
 34
0.0
 15
0.0
 25
0.0
 35
0.0
146
0.0
 13
0.0
 23
0.0
 33
0.0
 16
1.0
 26
0.0
 36
0.0
 17
0.0
 27
1.0
 37
0.0
 76
     0
330
153
331
426
  0
LAYOUT
  5
22C
102
{ACAD_REACTORS
330
1A
102
}
330
1A
100
AcDbPlotSettings
  1

  2
none_device
  4
ISO_A4_(210.00_x_297.00_MM)
  6

 40
7.5
 41
20.0
 42
7.5
 43
20.0
 44
210.0
 45
297.0
 46
0.0
 47
0.0
 48
0.0
 49
0.0
140
0.0
141
0.0
142
1.0
143
1.9450825085
 70
   688
 72
     1
 73
     1
 74
     1
  7

 75
     0
147
0.5141170082
148
249.9645918664
149
15.6651628606
100
AcDbLayout
  1
_Isometric
 70
     1
 71
     6
 10
0.0
 20
0.0
 11
0.0
 21
0.0
 12
0.0
 22
0.0
 32
0.0
 14
0.0
 24
0.0
 34
0.0
 15
0.0
 25
0.0
 35
0.0
146
0.0
 13
0.0
 23
0.0
 33
0.0
 16
1.0
 26
0.0
 36
0.0
 17
0.0
 27
1.0
 37
0.0
 76
     0
330
22B
331
42C
  0
LAYOUT
  5
18D
102
{ACAD_REACTORS
330
1A
102
}
330
1A
100
AcDbPlotSettings
  1

  2
none_device
  4
ISO_A4_(210.00_x_297.00_MM)
  6

 40
7.5
 41
20.0
 42
7.5
 43
20.0
 44
210.0
 45
297.0
 46
0.0
 47
0.0
 48
0.0
 49
0.0
140
0.0
141
0.0
142
1.0
143
1.9450825085
 70
   688
 72
     1
 73
     1
 74
     1
  7

 75
     0
147
0.5141170082
148
249.9645918664
149
15.6651628606
100
AcDbLayout
  1
_Left
 70
     1
 71
     4
 10
0.0
 20
0.0
 11
0.0
 21
0.0
 12
0.0
 22
0.0
 32
0.0
 14
0.0
 24
0.0
 34
0.0
 15
0.0
 25
0.0
 35
0.0
146
0.0
 13
0.0
 23
0.0
 33
0.0
 16
1.0
 26
0.0
 36
0.0
 17
0.0
 27
1.0
 37
0.0
 76
     0
330
18C
331
428
  0
LAYOUT
  5
26
102
{ACAD_REACTORS
330
1A
102
}
330
1A
100
AcDbPlotSettings
  1

  2
none_device
  4
ISO_A4_(210.00_x_297.00_MM)
  6

 40
7.5
 41
20.0
 42
7.5
 43
20.0
 44
210.0
 45
297.0
 46
0.0
 47
0.0
 48
0.0
 49
0.0
140
0.0
141
0.0
142
1.0
143
1.9450825085
 70
   688
 72
     1
 73
     1
 74
     1
  7

 75
     0
147
0.5141170082
148
249.9645918664
149
15.6651628606
100
AcDbLayout
  1
_Right
 70
     1
 71
     2
 10
0.0
 20
0.0
 11
0.0
 21
0.0
 12
0.0
 22
0.0
 32
0.0
 14
0.0
 24
0.0
 34
0.0
 15
0.0
 25
0.0
 35
0.0
146
0.0
 13
0.0
 23
0.0
 33
0.0
 16
1.0
 26
0.0
 36
0.0
 17
0.0
 27
1.0
 37
0.0
 76
     0
330
23
331
424
  0
LAYOUT
  5
1E
102
{ACAD_REACTORS
330
1A
102
}
330
1A
100
AcDbPlotSettings
  1

  2
none_device
  4
ISO_A4_(210.00_x_297.00_MM)
  6

 40
7.5
 41
20.0
 42
7.5
 43
20.0
 44
210.0
 45
297.0
 46
0.0
 47
0.0
 48
0.0
 49
0.0
140
0.0
141
0.0
142
1.0
143
1.9450825085
 70
   688
 72
     1
 73
     1
 74
     1
  7

 75
     0
147
0.5141170082
148
249.9645918664
149
15.6651628606
100
AcDbLayout
  1
_Top
 70
     1
 71
     1
 10
-288.8662420359
 20
-30.2532816742
 11
288.8232629811
 21
378.2140451056
 12
0.0
 22
0.0
 32
0.0
 14
-249.9645918664
 24
-15.6651628606
 34
0.0
 15
249.9216128117
 25
3.5
 35
0.0
146
0.0
 13
0.0
 23
0.0
 33
0.0
 16
1.0
 26
0.0
 36
0.0
 17
0.0
 27
1.0
 37
0.0
 76
     0
330
1B
331
422
  0
LAYOUT
  5
28D
102
{ACAD_REACTORS
330
1A
102
}
330
1A
100
AcDbPlotSettings
  1

  2
none_device
  4
ISO_A4_(210.00_x_297.00_MM)
  6

 40
7.5
 41
20.0
 42
7.5
 43
20.0
 44
210.0
 45
297.0
 46
0.0
 47
0.0
 48
0.0
 49
0.0
140
0.0
141
0.0
142
1.0
143
1.9450825085
 70
   688
 72
     1
 73
     1
 74
     1
  7

 75
     0
147
0.5141170082
148
249.9645918664
149
15.6651628606
100
AcDbLayout
  1
_Trimetric
 70
     1
 71
     7
 10
0.0
 20
0.0
 11
0.0
 21
0.0
 12
0.0
 22
0.0
 32
0.0
 14
0.0
 24
0.0
 34
0.0
 15
0.0
 25
0.0
 35
0.0
146
0.0
 13
0.0
 23
0.0
 33
0.0
 16
1.0
 26
0.0
 36
0.0
 17
0.0
 27
1.0
 37
0.0
 76
     0
330
28C
331
42E
  0
LAYOUT
  5
34B
102
{ACAD_REACTORS
330
1A
102
}
330
1A
100
AcDbPlotSettings
  1

  2
none_device
  4
ISO_A4_(210.00_x_297.00_MM)
  6

 40
7.5
 41
20.0
 42
7.5
 43
20.0
 44
210.0
 45
297.0
 46
0.0
 47
0.0
 48
0.0
 49
0.0
140
0.0
141
0.0
142
1.0
143
1.9450825085
 70
   688
 72
     1
 73
     1
 74
     1
  7

 75
     0
147
0.5141170082
148
249.9645918664
149
15.6651628606
100
AcDbLayout
  1
ISO PERSP
 70
     1
 71
     9
 10
0.0
 20
0.0
 11
0.0
 21
0.0
 12
0.0
 22
0.0
 32
0.0
 14
0.0
 24
0.0
 34
0.0
 15
0.0
 25
0.0
 35
0.0
146
0.0
 13
0.0
 23
0.0
 33
0.0
 16
1.0
 26
0.0
 36
0.0
 17
0.0
 27
1.0
 37
0.0
 76
     0
330
34A
331
432
  0
LAYOUT
  5
3AD
102
{ACAD_REACTORS
330
1A
102
}
330
1A
100
AcDbPlotSettings
  1

  2
none_device
  4
ISO_A4_(210.00_x_297.00_MM)
  6

 40
7.5
 41
20.0
 42
7.5
 43
20.0
 44
210.0
 45
297.0
 46
0.0
 47
0.0
 48
0.0
 49
0.0
140
0.0
141
0.0
142
1.0
143
1.9450825085
 70
   688
 72
     1
 73
     1
 74
     1
  7

 75
     0
147
0.5141170082
148
249.9645918664
149
15.6651628606
100
AcDbLayout
  1
ISO PERSP BACK
 70
     1
 71
    10
 10
0.0
 20
0.0
 11
0.0
 21
0.0
 12
0.0
 22
0.0
 32
0.0
 14
0.0
 24
0.0
 34
0.0
 15
0.0
 25
0.0
 35
0.0
146
0.0
 13
0.0
 23
0.0
 33
0.0
 16
1.0
 26
0.0
 36
0.0
 17
0.0
 27
1.0
 37
0.0
 76
     0
330
3AC
331
434
  0
LAYOUT
  5
22
102
{ACAD_REACTORS
330
1A
102
}
330
1A
100
AcDbPlotSettings
  1

  2
none_device
  4
ANSI_A_(11.00_x_8.50_Inches)
  6

 40
6.35
 41
19.05
 42
6.35000508
 43
19.05000254
 44
279.4
 45
215.9
 46
133.3389436055
 47
96.3622348715
 48
0.0
 49
0.0
140
0.0
141
0.0
142
0.0217850899
143
1.0
 70
  1696
 72
     0
 73
     0
 74
     0
  7

 75
     0
147
0.0179189148
148
-1300.4909072572
149
0.0
100
AcDbLayout
  1
Model
 70
     1
 71
     0
 10
0.0
 20
0.0
 11
420.0
 21
297.0
 12
0.0
 22
0.0
 32
0.0
 14
-249.9216128117
 24
-26.9715503129
 34
0.0
 15
249.9615659287
 25
0.0
 35
0.0
146
0.0
 13
0.0
 23
0.0
 33
0.0
 16
1.0
 26
0.0
 36
0.0
 17
0.0
 27
1.0
 37
0.0
 76
     0
330
1F
331
29
  0
MLINESTYLE
  5
18
102
{ACAD_REACTORS
330
17
102
}
330
17
100
AcDbMlineStyle
  2
Standard
 70
     0
  3

 62
   256
 51
90.0
 52
90.0
 71
     2
 49
0.5
 62
   256
  6
BYLAYER
 49
-0.5
 62
   256
  6
BYLAYER
  0
ACDBPLACEHOLDER
  5
F
102
{ACAD_REACTORS
330
E
102
}
330
E
  0
SCALE
  5
48
102
{ACAD_REACTORS
330
47
102
}
330
47
100
AcDbScale
 70
     0
300
1:1
140
1.0
141
1.0
290
     1
  0
SCALE
  5
49
102
{ACAD_REACTORS
330
47
102
}
330
47
100
AcDbScale
 70
     0
300
1:2
140
1.0
141
2.0
290
     0
  0
SCALE
  5
4A
102
{ACAD_REACTORS
330
47
102
}
330
47
100
AcDbScale
 70
     0
300
1:4
140
1.0
141
4.0
290
     0
  0
SCALE
  5
4B
102
{ACAD_REACTORS
330
47
102
}
330
47
100
AcDbScale
 70
     0
300
1:5
140
1.0
141
5.0
290
     0
  0
SCALE
  5
4C
102
{ACAD_REACTORS
330
47
102
}
330
47
100
AcDbScale
 70
     0
300
1:8
140
1.0
141
8.0
290
     0
  0
SCALE
  5
4D
102
{ACAD_REACTORS
330
47
102
}
330
47
100
AcDbScale
 70
     0
300
1:10
140
1.0
141
10.0
290
     0
  0
SCALE
  5
4E
102
{ACAD_REACTORS
330
47
102
}
330
47
100
AcDbScale
 70
     0
300
1:16
140
1.0
141
16.0
290
     0
  0
SCALE
  5
4F
102
{ACAD_REACTORS
330
47
102
}
330
47
100
AcDbScale
 70
     0
300
1:20
140
1.0
141
20.0
290
     0
  0
SCALE
  5
50
102
{ACAD_REACTORS
330
47
102
}
330
47
100
AcDbScale
 70
     0
300
1:30
140
1.0
141
30.0
290
     0
  0
SCALE
  5
51
102
{ACAD_REACTORS
330
47
102
}
330
47
100
AcDbScale
 70
     0
300
1:40
140
1.0
141
40.0
290
     0
  0
SCALE
  5
52
102
{ACAD_REACTORS
330
47
102
}
330
47
100
AcDbScale
 70
     0
300
1:50
140
1.0
141
50.0
290
     0
  0
SCALE
  5
53
102
{ACAD_REACTORS
330
47
102
}
330
47
100
AcDbScale
 70
     0
300
1:100
140
1.0
141
100.0
290
     0
  0
SCALE
  5
54
102
{ACAD_REACTORS
330
47
102
}
330
47
100
AcDbScale
 70
     0
300
2:1
140
2.0
141
1.0
290
     0
  0
SCALE
  5
55
102
{ACAD_REACTORS
330
47
102
}
330
47
100
AcDbScale
 70
     0
300
4:1
140
4.0
141
1.0
290
     0
  0
SCALE
  5
56
102
{ACAD_REACTORS
330
47
102
}
330
47
100
AcDbScale
 70
     0
300
8:1
140
8.0
141
1.0
290
     0
  0
SCALE
  5
57
102
{ACAD_REACTORS
330
47
102
}
330
47
100
AcDbScale
 70
     0
300
10:1
140
10.0
141
1.0
290
     0
  0
SCALE
  5
58
102
{ACAD_REACTORS
330
47
102
}
330
47
100
AcDbScale
 70
     0
300
100:1
140
100.0
141
1.0
290
     0
  0
SCALE
  5
59
102
{ACAD_REACTORS
330
47
102
}
330
47
100
AcDbScale
 70
     0
300
1/128" = 1'-0"
140
0.0078125
141
12.0
290
     0
  0
SCALE
  5
5A
102
{ACAD_REACTORS
330
47
102
}
330
47
100
AcDbScale
 70
     0
300
1/64" = 1'-0"
140
0.015625
141
12.0
290
     0
  0
SCALE
  5
5B
102
{ACAD_REACTORS
330
47
102
}
330
47
100
AcDbScale
 70
     0
300
1/32" = 1'-0"
140
0.03125
141
12.0
290
     0
  0
SCALE
  5
5C
102
{ACAD_REACTORS
330
47
102
}
330
47
100
AcDbScale
 70
     0
300
1/16" = 1'-0"
140
0.0625
141
12.0
290
     0
  0
SCALE
  5
5D
102
{ACAD_REACTORS
330
47
102
}
330
47
100
AcDbScale
 70
     0
300
3/32" = 1'-0"
140
0.09375
141
12.0
290
     0
  0
SCALE
  5
5E
102
{ACAD_REACTORS
330
47
102
}
330
47
100
AcDbScale
 70
     0
300
1/8" = 1'-0"
140
0.125
141
12.0
290
     0
  0
SCALE
  5
5F
102
{ACAD_REACTORS
330
47
102
}
330
47
100
AcDbScale
 70
     0
300
3/16" = 1'-0"
140
0.1875
141
12.0
290
     0
  0
SCALE
  5
60
102
{ACAD_REACTORS
330
47
102
}
330
47
100
AcDbScale
 70
     0
300
1/4" = 1'-0"
140
0.25
141
12.0
290
     0
  0
SCALE
  5
61
102
{ACAD_REACTORS
330
47
102
}
330
47
100
AcDbScale
 70
     0
300
3/8" = 1'-0"
140
0.375
141
12.0
290
     0
  0
SCALE
  5
62
102
{ACAD_REACTORS
330
47
102
}
330
47
100
AcDbScale
 70
     0
300
1/2" = 1'-0"
140
0.5
141
12.0
290
     0
  0
SCALE
  5
63
102
{ACAD_REACTORS
330
47
102
}
330
47
100
AcDbScale
 70
     0
300
3/4" = 1'-0"
140
0.75
141
12.0
290
     0
  0
SCALE
  5
64
102
{ACAD_REACTORS
330
47
102
}
330
47
100
AcDbScale
 70
     0
300
1" = 1'-0"
140
1.0
141
12.0
290
     0
  0
SCALE
  5
65
102
{ACAD_REACTORS
330
47
102
}
330
47
100
AcDbScale
 70
     0
300
1-1/2" = 1'-0"
140
1.5
141
12.0
290
     0
  0
SCALE
  5
66
102
{ACAD_REACTORS
330
47
102
}
330
47
100
AcDbScale
 70
     0
300
3" = 1'-0"
140
3.0
141
12.0
290
     0
  0
SCALE
  5
67
102
{ACAD_REACTORS
330
47
102
}
330
47
100
AcDbScale
 70
     0
300
6" = 1'-0"
140
6.0
141
12.0
290
     0
  0
SCALE
  5
68
102
{ACAD_REACTORS
330
47
102
}
330
47
100
AcDbScale
 70
     0
300
1'-0" = 1'-0"
140
12.0
141
12.0
290
     0
  0
ENDSEC
  0
EOF
